Enviado por:
Anonimo

Enanitos Verdes, Tu Carcel

Una rola bien chida que espero y les guste.
La canción va para mi bebita preciosa ...... Te Amo mi charrita .....

Intro...Electrik:

E|---------------------------------------------------------------------|
B|--5h7--7-5-----------------------------------------------------------|
G|------------7--7-7--9--11-11--7-7h9--9-7-6--6-6--7--9-9--6h7--7-6-5--|
D|---------------------------------------------------------------------|
A|---------------------------------------------------------------------|
E|---------------------------------------------------------------------|

E|-----------------------|
B|--4-4-6-7-6-4-6-7-9-9--|
G|-----------------------|
D|-----------------------|
A|-----------------------|
E|-----------------------|


Se vuelve a repetir el intro pero con los siguientes acordes: C-G-Am-F-D-G


E|---------------------------------------------------------------------|
B|--5h7--7-5-----------------------------------------------------------|
G|------------7--7-7--9--11-11--7-7h9--9-7-6--6-6--7--9-9--6h7--7-6-5--|
D|---------------------------------------------------------------------|
A|---------------------------------------------------------------------|
E|---------------------------------------------------------------------|

E|-----------------------|
B|--4-4-6-7-6-4-6-7-9-9--|
G|-----------------------|
D|-----------------------|
A|-----------------------|
E|-----------------------|


 C
Te vas amor, si así lo quieres
     G
que puedo yo hacer, tu vanidad
       Am
no te deja entender
F                   D         G
 que en pobreza se sabe querer.

  C
Quiero llorar, y me destroza
     G
que pienses así, y más que
           Am
ahora me quede sin ti
F                    D           G-G7
 me duele lo que tu vas a sufrir.


Coro:

C
Pero recuerda, nadie es perfecto
   G
y tú lo veras, mas de mil cosas
   Am
mejores tendrás
F                D         G
 pero cariño sincero jamás.

C
Vete olvidando, esto que hoy dejas
    G
y que cambiaras, por la aventura
     Am
que tu ya veras,
F                  D            G
 será tu cárcel y nunca saldrás.


Solo:

E|---------------------------------------------------------------------|
B|--5h7--7-5-----------------------------------------------------------|
G|------------7--7-7--9--11-11--7-7h9--9-7-6--6-6--7--9-9--6h7--7-6-5--|
D|---------------------------------------------------------------------|
A|---------------------------------------------------------------------|
E|---------------------------------------------------------------------|

E|--------------------------------------------------------------|
B|--4-4-6-7-6-4-6-7-9-9--9h11-9h11-9h11-9h11-9h11-9h11-9h11--9--|
G|--------------------------------------------------------------|
D|--------------------------------------------------------------|
A|--------------------------------------------------------------|
E|--------------------------------------------------------------|


 C
Quiero llorar, y me destroza
     G
que pienses así, y más que
           Am
ahora me quede sin ti
F                    D           G-G7
 me duele lo que tu vas a sufrir.


Coro:

C
Pero recuerda, nadie es perfecto
   G
y tú lo veras, mas de mil cosas
   Am
mejores tendrás
F                D         G
 pero cariño sincero jamás.

C
Vete olvidando, esto que hoy dejas
    G
y que cambiaras, por la aventura
     Am
que tu ya veras,
F                  D            G
 será tu cárcel y nunca saldrás.

C
Pero recuerda, nadie es perfecto
   G
y tú lo veras, mas de mil cosas
   Am
mejores tendrás
F                D         G
 pero cariño sincero jamás.

C
Vete olvidando, esto que hoy dejas
    G
y que cambiaras, por la aventura
     Am
que tu ya veras,
F                  D            G
 será tu cárcel y nunca saldrás.


Final:

E|--15h17--17-15----------------------------------------------------------------------------------|
B|----------------18--18-18--20--22-22--18-18h20--20-18-17--17-17--18--20-20--17-17h18--18-17-15--|
G|------------------------------------------------------------------------------------------------|
D|------------------------------------------------------------------------------------------------|
A|------------------------------------------------------------------------------------------------|
E|------------------------------------------------------------------------------------------------|

E|------------------------------------------------------|
B|--15-15--17--18-17-15-17-18-20-17-18-21-22b-22-21-22--|
G|------------------------------------------------------|
D|------------------------------------------------------|
A|------------------------------------------------------|
E|------------------------------------------------------|


Ahí esta la rola completa, espero y les haya gustado, duda o comentarios a mi correo.
Sale cuídense.

¡¡¡¡ Te amo mi charrita !!!!

† Dark Angel †

Fuente original: LaCuerda
Colaborador original: cris "Dark" [[email protected]]
Aviso: Este fichero es trabajo propio de su transcriptor y representa su interpretación personal de la canción. El material contenido en esta página es para exclusivo uso privado, por lo que se prohibe su reproducción o retransmisión, así como su uso para fines comerciales.

Califica esta canción


Comentarios en Facebook