Enviado por:
Anonimo

Enanitos Verdes, Tus Viejas Cartas

e-------------------|-----------------------|---------------
b---8-10-11-10-8-10-|---8-10-11-10-8-10-----|---5-7-8-7---5-
g-9-----------------|-9-----------------9-7-|-7---------7---
d-------------------|-----------------------|---------------
a-------------------|-----------------------|---------------
E-------------------|-----------------------|---------------


e-------------------|-----------|---7-10---|---------------------------------|
b-------------------|-11-10-8-7-|-8------8-|-15-17--19-20-19-17-15-17-15^-12-|
g-------------------|-----------|----------|---------------------------------|
d-5/7-5---5-7-------|-----------|----------|---------------------------------|
a-------7-----5/7-5-|-----------|----------|---------------------------------|
E-------------------|-----------|----------|---------------------------------|


e-------------------|------10----|
b---8-10-11-10-8-10-|-12^-----12-|
g-------------------|------------|
d-------------------|------------|
a-------------------|------------|
E-------------------|------------|

esta canción va para todos los guitarristas de corazón, pongale
arto empeño q se puede

Fuente original: LaCuerda
Colaborador original: Mark Abarzúa [[email protected]]
Aviso: Este fichero es trabajo propio de su transcriptor y representa su interpretación personal de la canción. El material contenido en esta página es para exclusivo uso privado, por lo que se prohibe su reproducción o retransmisión, así como su uso para fines comerciales.

Califica esta canción


Comentarios en Facebook