Enviado por:
Anonimo

Enanitos Verdes, La Banda De La Esquina

Imprimir
Bueno, esta es, me parece, la transcripción correcta para tocar La banda de la Esquina 
en una guitarra en la escala E (afinación normal). 
Lo que me falta es poner los solos. 
Saludos,

Arturo Goga




**Intro (x2):

G# Dm#7 Cm#

Riff 1      
e|---------2-----------|
B|---2--4-----4--------|
G|---------------------|
D|---------------------|
A|---------------------|
E|---------------------|


G# Dm#7 Cm#

Riff 2      
e|---------------------|
B|---------------------|
G|---------------------|
D|---------------------|
A|--2--2--1------------|
E|----------4--2---4---|


**Verse 1:

G# Dm#7 Cm#

Acá se utilizan los mismos acordes que en la intro, además de que la segunda 
guitarra hace este riff:


Riff 3     
e|---------------------|
B|---------------------|
G|------------4--4-----|
D|-6--4--6--4-----6----|
A|---------------------|
E|---------------------|



G#         Dm#7        Cm#
  Hipnotizándome en silencio
G#               Dm#7              Cm#
  vi flores de plástico a su paso cayendo
G#         Dm#7                    Cm#
 y toda la banda que estaba en la esquina
               
G#            Dm#7               Cm#
 la sigue mirando tan duros de tiempo 



**Bridge: 

Cm#
y ella no sabe nada
E              
ella no quiere saber



**Verse 2:


G#       Dm#7                 Cm#
 Pornografía y tragedia en un beso 
G#       Dm#7         Cm#
 necesitaba ese consuelo
G#                 Dm#7
 por que nadie puede
 Cm#
vivir de recuerdos
G#       Dm#7                 Cm#
o es la ilusión de vivirlo de nuevo


          

**Bridge: 

Cm#
y ella no sabe nada
E                 B
ella no quiere saber


**Chorus:


         F#m       Cm#
que me sigue su sombra
    B           F#m
que ya no hay lugar 
          Cm#
que me esconda

            B
no quiere saber
         F#m       Cm#
que me sigue su sombra
    B           F#m
que ya no hay lugar 
          Cm#
que me esconda



***Acá se hace el Riff #2***


Riff 2      
e|---------------------|
B|---------------------|
G|---------------------|
D|---------------------|
A|--2--2--1------------|
E|----------4--2---4---|

B                     G#
su luz me va a encontrar



**Verse 3:     

             Dm#7         Cm#
ella es tan clara, tan oportuna
G#           Dm#7                 C#m
 camina tan bello a la luz de la luna


**Bridge: 

Cm#
y nunca supo nada
E                B
ella no quiere saber

**Chorus:
         F#m       Cm#
que me sigue su sombra
    B           F#m
que ya no hay lugar 
          Cm#
que me esconda

            B
no quiere saber
         F#m       Cm#
que me sigue su sombra
    B           F#m
que ya no hay lugar 
          Cm#
que me esconda


***Acá se hace el Riff #2***


Riff 2      
e|---------------------|
B|---------------------|
G|---------------------|
D|---------------------|
A|--2--2--1------------|
E|----------4--2---4---|

B                     
su luz me va a encontrar


Outro:

G# Dm#7 Cm#

                G# Dm#7 Cm#  
Me va a encontrar....

                G# Dm#7 Cm#  
Me va a encontrar.... Me va a encontrar


**Solo:

Pronto lo pondré...Mientras tanto, 
las notas que acompañan al Solo son : G# Dm#7 Cm# 


Bridge:

Cm#

E                B
ella no quiere saber

**Chorus:
         F#m       Cm#
que me sigue su sombra
    B           F#m
que ya no hay lugar 
          Cm#
que me esconda

            B
no quiere saber
         F#m       Cm#
que me sigue su sombra
    B           F#m
que ya no hay lugar 
          Cm#
que me esconda

***Acá se hace el Riff #2***


Riff 2      
e|---------------------|
B|---------------------|
G|---------------------|
D|---------------------|
A|--2--2--1------------|
E|----------4--2---4---|

B                     
su luz me va a encontrar
            
**Solo 2
También, viene pronto.Mientras tanto, 
las notas que acompañan al Solo son : G# Dm#7 Cm# 


Y la canción termina en : 

Riff 2             G#
e|-----------------4---|
B|-----------------4---|
G|-----------------5---|
D|-----------------6---|
A|--2--2--1--------6---|
E|----------4--2---4---|

Fuente original: LaCuerda
Colaborador original: Arturo Goga [[email protected]]
Aviso: Este fichero es trabajo propio de su transcriptor y representa su interpretación personal de la canción. El material contenido en esta página es para exclusivo uso privado, por lo que se prohibe su reproducción o retransmisión, así como su uso para fines comerciales.

Califica esta canción


Comentarios en Facebook