Enviado por:
anonimo

No Te Va Gustar, El Mismo Canal

Imprimir
Puse los golpes (numerados de 1 a 4 en cada compás) y pedazos de
letra para guiar el ritmo. Pero igual es fácil agarrarlo.

Del (VERSO) van sólo dos compases porque repite siempre lo mismo. La
introducción es igual a (VERSO). El (*) arriba de un 1 significa
"volver al primer 1 de (VERSO)".

El sd significa slide down (no pude usar la retrobarra).


(VERSO)
                                                                  (*)
G|-------------------------------------------------------------------
D|-------------------------------------------------------------------
A|---------------5-6-------5---------------------5-6-6-----5-5-------
E|-3---------3-6-----------------------------3-6-------------------3-

   ^       ^       ^       ^       ^       ^       ^       ^       ^
   1       2       3       4       1       2       3       4       1
 _puestos_tir   papel           _puestos _gir     cámara tres   total


(ESTRIBILLO)

G|-------------------------------------------------------------------
D|-------------------------------------------------------------------
A|---------------------------------6---------------5-5---------------
E|-1---------------6-------------------------------------------------

   ^       ^       ^       ^       ^       ^       ^       ^
   1       2       3       4       1       2       3       4
           No     ves,        por vos   estando  acá

                                                                  (*)
G|-------------------------------------------------------------------
D|-------------------------------------------------------------------
A|---------------------------------6-----------------------5sd-----3-
E|-1---------------6-------------------------------------------------

   ^       ^       ^       ^       ^       ^       ^       ^       ^
   1       2       3       4       1       2       3       4       1
           me     ves,             a la   hora    mismo  canal me ves


(PUENTE)

G|----------------------------------------------------------------
D|----------------------------------------------------------------
A|----------------------------------------------------------------
E|-5-----5---------5-----5---------5-----5---------5-----5--------
   ^       ^       ^       ^       ^       ^       ^       ^
   1       2       3       4       1       2       3       4
Dejá  preocupes  ayudo  pensar    sos  _ligente jabón     más

                                                                  (*)
G|-------------------------------------------------------------------
D|-------------------------------------------------------------------
A|-------------------------------------------------------------------
E|-5-----5---------5-----5---------5-----5---------1---------------3-
   ^       ^       ^       ^       ^       ^       ^       ^       ^
   1       2       3       4       1       2       3       4       1
  hora  _biar celular             tanto _giero  tenés   votar   votá
Aviso: Este fichero es trabajo propio de su transcriptor y representa su interpretación personal de la canción. El material contenido en esta página es para exclusivo uso privado, por lo que se prohibe su reproducción o retransmisión, así como su uso para fines comerciales.

Califica esta canción


Comentarios en Facebook