Enviado por:
anonimo

Enanitos Verdes, Dame Otra Oportunidad

El bajo en esta cancion es lento es un poco dificil de aprender pero al final se escuchara 
bien

G |-----------------------------------------------------------------------------------------|
D |-----------------------------------------5-3-1-5-3-1-5-3-1-5-3-1-5-3-1-5-3-1-5-3-1-------|
A |-----------------5-3-1-5-3-1-5-3-1-5-3-1-------------------------------------------------|
E |-5-3-7-5-3-7-5-3-------------------------------------------------------------------------|

G |-----------------------------------------------------------------------------------------|
D |-5--5--5---5-3-1-5-3-1-------------------------------------------------------------------|
A |--5--5--5--------------------------------------------5-3-1-5-3-1-5-3-1-5-3-1-5-3-1-5-3-1-|
E |---5--5--5-------------5-3-7-5-3-7-5-3-7-5-3-7-5-3-7-------------------------------------|

G |-----------------------------------------------------------------------------------------|
D |-1--1--1--1--1--1------------------------------------------------------------------------|
A |--3--3--3--3--3--3-----------------------------------------------------------------------|
E |---5--5--5--5--5--5--5-1-3-5-1-3-5-1-3-5-1-3-5-1-3---------------------------------------|

Si tienen alguna duda escribanme a [email protected]
Aviso: Este fichero es trabajo propio de su transcriptor y representa su interpretación personal de la canción. El material contenido en esta página es para exclusivo uso privado, por lo que se prohibe su reproducción o retransmisión, así como su uso para fines comerciales.

Califica esta canción


Comentarios en Facebook