Enviado por:
anonimo

Danilo Montero, Tu Eres Rey

Imprimir
Aqui esta la prima o arreglo de esta canción muy bonita y sencilla.
Aqui está la primera parte ya que se
compone de 4 veces solo que van convinadas

e------------- 10-----------------10-----------------------
B---7----8---------7-------8-------------7-----8--------
G-------------------------------------------------------9---
D-----------------------------------------------------------
A------------------------------------------------------------
E-----------------------------------------------------------

e------------ 10---------------10------------------------------------
B---7----8--------7-------8---------7-----8(prolongado con delay)-
G--------------------------------------------------------------------------
D--------------------------------------------------------------------------
A--------------------------------------------------------------------------
E--------------------------------------------------------------------------

De aqui se repite la primera tablatura
y después la segunda y eso es todo, aqui adjunto
la transcripción de Yeik y Esdras

G     D     C    G      D       C
 Cuan asombrosas  son Dios, tus obras
Em       D    C  Em       D    C
  Nadie como tu,   nadie como tu
G     D    C    G     D   C
 Te proclamamos, Rey soberano
Em       D    C  Em       D    C
  Nadie como tu,   nadie como tu


         G      C      D
Porque grandes son tus obras
  G        Am   C
Grande es tu poder
     G          D         Em     C
El cielo y la tierra y debajo de ella
    G     D       C
declaran tu eres Rey.

PRIMA



e------------- 10-----------------10-----------------------
B---7----8---------7-------8-------------7-----8--------
G-------------------------------------------------------9---
D-----------------------------------------------------------
A------------------------------------------------------------
E-----------------------------------------------------------

e------------ 10---------------10------------------------------------
B---7----8--------7-------8---------7-----8(prolongado con delay)-
G--------------------------------------------------------------------------
D--------------------------------------------------------------------------
A--------------------------------------------------------------------------
E--------------------------------------------------------------------------
Aqui van acompañadas, osea primero la tablatura de arriba
y luego la segunda
hay que escucharla para entenderla


CORO:
         G D C                     G D C
Tu eres Rey,  (PUNTEO 1)  Tu eres Rey   (PUNTEO 1)
         G D C                     G D C
Tu eres Rey,  (PUNTEO 1)  Tu eres Rey   (PUNTEO 1)

e------------- 10-----------------10-----------------------
B---7----8---------7-------8-------------7-----8--------
G-------------------------------------------------------9---
D-----------------------------------------------------------
A------------------------------------------------------------
E-----------------------------------------------------------

e------------ 10---------------10------------------------------------
B---7----8--------7-------8---------7-----8(prolongado con delay)-
G--------------------------------------------------------------------------
D--------------------------------------------------------------------------
A--------------------------------------------------------------------------
E--------------------------------------------------------------------------

Para mejors resultados en el sonido de la guitarra electrica yo uso
Distorción OD-1 2:00
(imaginen que el potenciometro es un reloj que apunta a la 2)
Delay de 50mms
Un Saludo a los chicos de Alabanza de
Ministerios La Roca, Guayaquil - Ecuador,
a Dunamis y  Horeb
Bendiciones
Aviso: Este fichero es trabajo propio de su transcriptor y representa su interpretación personal de la canción. El material contenido en esta página es para exclusivo uso privado, por lo que se prohibe su reproducción o retransmisión, así como su uso para fines comerciales.

Califica esta canción


Comentarios en Facebook