Enviado por:
anonimo

Andrés Calamaro, Costumbres Argentinas

Intro S: slap P: Pop

   P   S S   P  s  P    P   S S
G|------------------------------|
D|-2h4-------4-----2----2h4-----|
A|-----4--------x-----------4---|
E|-------2--------------------2-|

Verso

G|------------------------------------------------|
D|------------------------------------------------|
A|-------4-2-2h4--------------------------4-4-4-0-|
E|-2-2-2---------2-2-2--2-4-4-4-4-2-5-5-5---------|

G|------------------------------------------------|
D|-4-4-4------------------------------------------|
A|-------4-2-2h4--------------------------4-4-4-0-|
E|---------------2-2-2--2-4-4-4-4-2-5-5-5---------|

Estribillo

G|--------------------------------------------------------|
D|-0-0-0-0-2-2-2-2---------------0-0-0-0-2-2-2-2----------|
A|-----------------0-0-0-0-4-4-4-----------------0-0-0-0-0|
E|--------------------------------------------------------|

Mini puente

G|--------|
D|--------|
A|-2 2-4--|
E|--------|


G|-----------------------------------------------|
D|-0-0-0-0-2-2-2-2---------------0-0-0-0-2-2-2-2-|
A|-----------------0-0-0-0-4-4-4-----------------|
E|-----------------------------------------------|

Puente al solo de guitarra

G|--------------|
D|--------------|
A|--------------|
E|-2-2-2---2-2-2|

Solo de Guitarra = Verso

Solo de Saxo

G|---------------|
D|---------------|
A|-------4-2-2-2-|
E|-2-2-2---------|(x8)

Final

G|---|
D|---|
A|-3-|
E|---|
Aviso: Este fichero es trabajo propio de su transcriptor y representa su interpretación personal de la canción. El material contenido en esta página es para exclusivo uso privado, por lo que se prohibe su reproducción o retransmisión, así como su uso para fines comerciales.

Califica esta canción


Comentarios en Facebook