Enviado por:
anonimo

No Te Va Gustar, Voces Del Tiempo

Imprimir
intro:
/---------------------------------------------
/--33--3-3---333--3-3--322--2-2---222--2-252--x2
/---------------------------------------------
/---------------------------------------------

voces del tiempo llegan invaden tu interior
tantos solos un cuento mas ingrato de dolor
para que fingir siendo tan dificil estar solos
ya llegado el tiempo la sangre dejara de correr a rios

/----------0-00-000-1-11-11101-11-111--------------------
/-3-33-333----------------------------3-33-33323-33-3335-
/--------------------------------------------------------
/--------------------------------------------------------

Puente:vas a salir, vas a encontrar tu voz

/-1-11-111-1-11-111-1-11-111-1-11-111-
/-------------------------------------
/-------------------------------------
/-------------------------------------

intro x1

/---------------------------------------------
/--33--3-3---333--3-3--322--2-2---222--2-252--
/---------------------------------------------
/---------------------------------------------


verso:
nada se logra con tu violencia ni se lograra
me pierdo en el aire como lagrima que triste cae al rio
si yo me encierro si no te llamo es que no puedo mas
llora la lluvia se moja el recuerdo y la brisa se llena de ti

/----------0-00-000-1-11-11101-11-111--------------------
/-3-33-333----------------------------3-33-33323-33-3335-
/--------------------------------------------------------
/--------------------------------------------------------

puente: vas a salir, vas a encontrar tu voz

/-1-11-111-1-11-111-1-11-111-1-11-111-
/-------------------------------------
/-------------------------------------
/-------------------------------------

/----------------------
/-33--3-3--333--33-----
/----------------------
/----------------------

perdon de frente voy de otra manera no eria yo

/-1-11-111-1-11-111-1-11-111-1-11-111-
/-------------------------------------
/-------------------------------------
/-------------------------------------

/-----------------------
/--3--333--3-2-0--000---
/-----------------------
/-----------------------

la verdad es qeu el tiempo no nos ha hecho bien

/--1--111--1111--111--3--333--3333--333--
/----------------------------------------
/----------------------------------------
/----------------------------------------

/-----------------------
/--3--333--3-2-0--000---
/-----------------------
/-----------------------

nada iguala lo que quiero yo de ti...

/--1--111--1111--111--3--333--3333--333--
/----------------------------------------3
/----------------------------------------
/----------------------------------------

repite el intro hasta el final

/---------------------------------------------
/--33--3-3---333--3-3--322--2-2---222--2-252--
/---------------------------------------------
/---------------------------------------------


ahora me parece qeu esta bien ja
Aviso: Este fichero es trabajo propio de su transcriptor y representa su interpretación personal de la canción. El material contenido en esta página es para exclusivo uso privado, por lo que se prohibe su reproducción o retransmisión, así como su uso para fines comerciales.

Califica esta canción


Comentarios en Facebook