Enviado por:
anonimo

Pedro Guerra, Dibujos Animados

Imprimir
Gtr I (E A D G B E)

   Intro

    D       A7    Bm7       F#m7
   2/4
    Gtr I
||--------2-0---|-------5-|-5-----5-------|-5-----||-5----|-----|
||o-----3-----2-|-3---3---|-----2---2---2-|------o||------|-----|
||----2---------|---2-----|---2-------2---|-------||------|-----|
||--0-----------|---------|---------------|-------||------|-----|
||o-------------|-2-------|---------------|------o||------|-----|
||--------------|---------|-2-------------|-------||-2----|-----|


 Yo podria...
  D     A7      Bm7           F#m
|-------0-----|---------2---|--------|-----5-----|
|-----3---2---|-------3-----|--------|--2------2-|
|---2-------0-|-----2-----2-|------2-|-------2---|
|-0-----------|---4---------|----4---|-----------|
|-------0-----|-2-----------|--------|-----------|
|-------------|-------------|-2------|-(2)-------|


  G        E7/Ab    A
|--------|--------|-------------|-----------|
|-----0--|-----3--|-------2---3-|---5-(5)---|
|-----0--|-----4--|-----2-------|-----------|
|---0----|---2----|---2---------|-----------|
|--------|--------|-0-------2---|-4---------|
|-3------|-4------|-------------|-----------|


  D       A7    Bm7       F#m                  G
|-------2-0---|-------5-|-5------|-----5-----|---------|
|-----3-----2-|-3---3---|--------|--2----2---|-----0---|
|---2---------|---------|------2-|---------2-|-----0---|
|-2-----------|---4-----|----4---|-----------|---0---0-|
|---------0---|-2-------|--------|-----------|---------|
|-------------|---------|-2------|-(2)-------|-3-------|


  E7/Ab     A
|---------|-------------0-(0)---|------------------|
|-----3---|-----2-(2)-----------|-----2-(2)--------|
|-----4---|-----0-(0)-----------|--0----------0----|
|---2---2-|---2-------2-------2-|-----------2------|
|---------|-0-------------------|-(0)--------------|
|-4-------|---------------------|------------------|


  D       A7    Bm7       F#m
|-------2-0---|-------5-|-5------|-----5-----|
|-----3-----2-|-3---3---|--------|--2----2---|
|---2---------|---------|------2-|---------2-|
|-0-----------|---4-----|----4---|-----------|
|---------0---|-2-------|--------|-----------|
|-------------|---------|-2------|-(2)-------|


  G         E7/Ab       A
|---------|-----------|-------------|------------|
|-----0---|-------3---|-------2---3-|---5-(5)----|
|-----0---|-----4---4-|-----2-------|------------|
|---0---0-|---2-------|---2---------|------------|
|---------|-----------|-0-------2---|-4----------|
|-3-------|-4---------|-------------|------------|


  D     A7      Bm7           F#m
|-------0-----|---------2---|-5------|
|-----3---2---|-------3-----|--------|
|---2-------0-|-----2-----2-|------2-|
|-0-----------|---4---------|----4---|
|-------0-----|-2-----------|--------|
|-------------|-------------|-2------|


             G        E7/Ab    A
|-----5-5--|--------|--------|--------|--------|
|--2-------|------0-|------3-|--------|--------|
|----------|------0-|------4-|-----0--|-(0)----|
|----------|----0---|----2---|---2----|--------|
|----------|--------|--------|-0------|--------|
|-(2)------|-3------|-4------|--------|--------|


 Coro:
  D             A/C#              Bm7         A7
|-------2-----|-------------2---|-----------|--------|
|-----3---3---|-------5-(5)---5-|-------3---|-----2--|
|---2-------2-|-----2-----------|-----2---2-|-----0--|
|-0-----------|---2-------------|---4-------|---2----|
|-------------|-4---------------|-2---------|-0------|
|-------------|-----------------|-----------|--------|


  G                Dadd9/F#    Em          A7
|---------3------|-----0-----|---------0-|---------------|
|-----0-----0----|---3---3---|---------0-|-------2-(2)---|
|---0---0-----0--|-2-------2-|-----0---0-|-----0---------|
|----------------|-----------|---0---0---|---2-----------|
|----------------|-----------|-2---------|-0-------------|
|-3--------------|-2---------|-0---------|---------------|


  D             A/C#              Bm7         A7
|-------2-----|-------------2---|-----------|--------|
|-----3---3---|-------5-(5)---5-|-------3---|-----2--|
|---2-------2-|-----2-----------|-----2---2-|-----0--|
|-0-----------|---2-------------|---4-------|---2----|
|-------------|-4---------------|-2---------|-0------|
|-------------|-----------------|-----------|--------|


  G                Dadd9       Em       A7
|---------3------|-----0-----|-----0--|-^0----|-(0)----|
|-----0-----0----|---3---3---|-----0--|-^2----|-(2)----|
|---0---0-----0--|-2-------2-|-----0--|-^0----|-(0)----|
|----------------|-----------|---0----|-^2----|-(2)----|
|----------------|-----------|-2------|-^0----|-(0)----|
|-3--------------|-2---------|-0------|-------|--------|


 Hoy te he visto...
  D       A7    Bm7       F#m
|-------2-0---|-------5-|-5----|-(5)-------|
|-----3-----2-|-3---3---|------|-----------|
|---2---------|---------|------|-----------|
|-0-----------|---4-----|------|-----------|
|---------0---|-2-------|------|-----------|
|-------------|---------|-2----|-(2)-(2)---|


  G         E7/Ab       A
|---------|-----------|-------------|------------|
|-----0---|-------3---|-------2---3-|---5-(5)----|
|-----0---|-----4---4-|-----2-------|------------|
|---0---0-|---2-------|---2---------|------------|
|---------|-----------|-0-------2---|-4----------|
|-3-------|-4---------|-------------|------------|


  D     A7      Bm7           F#m
|-------0-----|---------2---|-5------|-----5-5--|
|-----3---2---|-------3-----|--------|--2-------|
|---2-------0-|-----2-----2-|------2-|----------|
|-0-----------|---4---------|----4---|----------|
|-------0-----|-2-----------|--------|----------|
|-------------|-------------|-2------|-(2)------|


  G         E7/Ab     A
|---------|---------|---------|--0-----|
|-----0---|-----3---|-------2-|--------|
|-----0---|-----4---|-----0---|--------|
|---0---0-|---2---2-|---2-----|--------|
|---------|---------|-0-------|-(0)----|
|-3-------|-4-------|---------|--------|


 Coro
  D             A/C#              Bm7         A7
|-------2-----|-------------2---|-----------|---------|
|-----3---3---|-------5-(5)---5-|-------3---|-----2---|
|---2-------2-|-----2-----------|-----2---2-|-----0---|
|-0-----------|---2-------------|---4-------|---2---2-|
|-------------|-4---------------|-2---------|-0-------|
|-------------|-----------------|-----------|---------|


  G         E7/Ab       A
|---------|-----------|---------------0-|----------|
|-----0---|---3---3---|---------------0-|-----2----|
|-----0---|---2-----2-|---------------0-|-----0----|
|---0---0-|-----0-----|-----------------|---2------|
|---------|-----------|-2-(2)-(2)-(2)---|-0--------|
|-3-------|-2---------|-0-(0)-(0)-(0)---|----------|


  D             A/C#              Bm7         A
|-------2-----|-------------2---|-----------|------|
|-----3---3---|-------5-(5)---5-|-------3---|------|
|---2-------2-|-----2-----------|-----2---2-|------|
|-0-----------|---2-------------|---4-------|------|
|-------------|-4---------------|-2---------|-0----|
|-------------|-----------------|-----------|------|


  G         E7/Ab       A
|---------|-----------|---------0-|---------------|
|-----0---|---3---3---|---------0-|-------2-(2)---|
|-----0---|---2-----2-|-----0---0-|-----0---------|
|---0---0-|-----0-----|---0---0---|---2-----------|
|---------|-----------|-2---------|-0-------------|
|-3-------|-2---------|-0---------|---------------|



  D       A7    Bm7       F#m
|-------2-0---|-------5-|-5------|--5-----|
|-----3-----2-|-3---3---|------2-|--------|
|---2---------|---------|----2---|--------|
|-0-----------|---4-----|--------|--------|
|---------0---|-2-------|--------|--------|
|-------------|---------|-2------|-(2)----|


 Me aplastó el...
        F#m     G         E7/Ab     A
                                   5/4
|-----|----5--|---------|---------|---------------|
|-----|-2-----|-----0---|-----3---|---------------|
|-----|-2-----|-----0---|-----4---|---------------|
|-----|-------|---0---0-|---2---2-|---------------|
|-----|-------|---------|---------|-0--------(0)--|
|-----|-------|-3-------|-4-------|---------------|


  D     A7      Bm7         F#m               G        E7/Ab
 2/4
|-------0-----|---------5-|--------|-5---5--|--------|------|-----|-----|-----|
|-----3---2---|-3-----3---|--------|-2------|------0-|------|-----|-----|-----|
|---2-------0-|-----2-----|-----2--|---2----|--------|------|-----|-----|-----|
|-0-----------|---4-------|---4----|--------|----0---|------|-----|-----|-----|
|-------0-----|-2---------|--------|--------|--------|------|-----|-----|-----|
|-------------|-----------|-2------|--------|-3------|-4----|-----|-----|-----|


 Coro Final:
  D             A/C#    Bm7        A7
|-------2--|--------2-|----------|---------|
|-----3----|------5---|-----3----|-----2---|
|---2------|----2-----|---2-2--2-|-----0---|
|-0--------|--2-------|---4------|---2---2-|
|----------|----4-----|-2--------|-0-------|
|----------|----------|----------|---------|


  G         Dadd9/F#    Em7         A7
|---------|-----------|---------0-|-----------0--|
|-----0---|---3---3---|---------0-|-----2-(2)----|
|-----0---|---2-----2-|-----0---0-|-----0-(0)----|
|---0---0-|-----0-----|---0---0---|---2----------|
|---------|-----------|-2---------|-0------------|
|-3-------|-2---------|-0---------|--------------|


  D             A/C#              Bm7         A7
|-------2-----|-------------2---|-----------|--------|
|-----3---3---|-------5-(5)---5-|-------3---|-----2--|
|---2-------2-|-----2-----------|-----2---2-|-----0--|
|-0-----------|---2-------------|---4-------|---2----|
|-------------|-4---------------|-2---------|-0------|
|-------------|-----------------|-----------|--------|


  G                Dadd9/F#    Em7         A7
|---------3------|-----0-----|---------0-|---------------|
|-----0-----0----|---3---3---|---------0-|-------2-(2)---|
|---0---0-----0--|-2-------2-|-----0---0-|-----0---------|
|----------------|-----------|---0---0---|---2-----------|
|----------------|-----------|-2---------|-0-------------|
|-3--------------|-2---------|-0---------|---------------|


  D         A/C#      Bm7       A7
|-^2--^2--|-^2--^2--|-^2------|---------|
|-^3--^3--|-^5--^5--|-^3--^3--|-^2--^2--|
|-^2--^2--|-^2------|-^2--^2--|-^0--^0--|
|-^0------|-^2------|-^4--^4--|-^2------|
|---------|-^4------|-^2------|-^0------|
|---------|---------|---------|---------|


  G         Dadd9     Em7       A7
|-^3--^3--|-^0------|-^0--^0--|-----------|
|-^0--^0--|-^3--^3--|-^0--^0--|-^2--^2----|
|-^0--^0--|-^2--^2--|-^0--^0--|-^0--^0----|
|-^0--^0--|-^0--^0--|-^0------|-^2--^2----|
|-^2------|---------|-^2------|-^0--------|
|-^3------|---------|---------|-----------|


  D       A/C#     Bm7     A7       G        Dadd9/F# Em7      A7
|----2--|--------|-------|--------|-----3--|--------|----0--|--------*|
|----3--|-----5--|----3--|-----2--|-----0--|-----3--|----0--|--^2----*|
|----2--|-----2--|----2--|-----0--|---0----|-----2--|-------|--^0----*|
|-0-----|---2----|----4--|---2----|--------|---0----|-------|--^2----*|
|-------|-4------|-2-----|-0------|--------|--------|-2-----|--^0----*|
|-------|--------|-------|--------|-3------|-2------|-0-----|--------*|


Tablature Legend
----------------
 h   - hammer-on
 p   - pull-off
 B   - bend
 s   - legato slide
 S   - shift slide
  - natural harmonic
[n]  - artificial harmonic
n(n) - tapped harmonic
 ~   - vibrato
 tr  - trill
 T   - tap
 TP  - trem. picking

Misc Legend
-----------
 |  - bar
||  - double bar
||o - repeat start
o|| - repeat end
*|  - double bar [ending]
 :  - bar (freetime)
 $  - Segno
 &  - Coda



***************************************************************************************
* Generado usando Power Tab Editor por Brad Larsen- http://powertab.guitarnetwork.org *
***************************************************************************************
Aviso: Este fichero es trabajo propio de su transcriptor y representa su interpretación personal de la canción. El material contenido en esta página es para exclusivo uso privado, por lo que se prohibe su reproducción o retransmisión, así como su uso para fines comerciales.

Califica esta canción


Comentarios en Facebook