Enviado por:
anonimo

Danilo Montero, Eres Tú

Imprimir
 e--------------------14-13------------------------14b-14bv-11s14v--
 B-----12-14-14b-(14bv)-------14s16----14----12v--------------------
 G--13-----------------------------16----13-----13v-----------------
 D------------------------------------------------------------------
 A------------------------------------------------------------------
 E------------------------------------------------------------------


 e--14b-(14bv)-11s14v------------------------------------------------
 B-------------------16-14-12--12-14-16-14-12-16v--16-14-12----------
 G---------------------------------------------------------15-13v----
 D-------------------------------------------------------------------
 A-------------------------------------------------------------------
 E-------------------------------------------------------------------


  (xbv)los que estan entre parentesis tienen que hacer un bend
  levantando la cuerda y hacer un vibrato mientras
  haces un bend
Aviso: Este fichero es trabajo propio de su transcriptor y representa su interpretación personal de la canción. El material contenido en esta página es para exclusivo uso privado, por lo que se prohibe su reproducción o retransmisión, así como su uso para fines comerciales.

Califica esta canción


Comentarios en Facebook