Enviado por:
anonimo

Andrés Calamaro, Hace Calor

Imprimir
e|-13-13-10-13-13--9s10--13-13-10-9-8--------------------
B|------------------------------------11--8--8--8-6---11-
G|--------------------------------------------------7----
D|-------------------------------------------------------
A|-------------------------------------------------------
E|-------------------------------------------------------

--------------------12-12-12-11-10-10--15--13------------
-12------------------------------------15-----15--14--13-
----12-10-12--9------------------------------------------
----------------12---------------------------------------
---------------------------------------------------------
---------------------------------------------------------

----------------------------------------------------------
-11s12-------------------11-12----------------------------
-------12-10-12-10----11-------12-12--0--2--3--4--4-4-5-5-
-------------------12-------------------------------------
----------------------------------------------------------
----------------------------------------------------------

----------------------------------------------------------
-------------8--8-6---11---12-----------------------------
-7--6-5-4-----------7---------12-10-12--9-9-8-9---------9-
------------------------------------------------10--------
----------------------------------------------------------
----------------------------------------------------------

------------------------------------------------|
-----------------------------------6s8-6s8-6----|
-9s11--9s11-11--6s7--7--7-6-5-4---------------7-|
------------------------------------------------|
------------------------------------------------|
------------------------------------------------|

s: slide
Aviso: Este fichero es trabajo propio de su transcriptor y representa su interpretación personal de la canción. El material contenido en esta página es para exclusivo uso privado, por lo que se prohibe su reproducción o retransmisión, así como su uso para fines comerciales.

Califica esta canción


Comentarios en Facebook