Enviado por:
anonimo

Sin Bandera, Te Esperaré

Imprimir
y saludos:[email protected]
yo Brian Aubert Huayotuma Fernández
mi nombre esta bién escrito,
Este intro siempre es aparte de sin bandera ,
como minuto antes de otro paso.

ACAPELA: ahora con poco de guitarra.

saludos , clik en calidad.
siempre es solo.
Stars

Arpegio>>>>>>>> o rasgueo util. 1RA 2DA 3RA
(X4)
1RA 2DA 4RA (X5)





INTRO:>>>>>>>>>>>>>>>>>>>>>>>>>>>
e----6p8----6-8----6s9999--8-A----
B--8------8------8----------------
G---------------------------------
D---------------------------------
A---------------------------------
E---------------------------------
----------------------------------


mas rapido: composicisio´n
e----6p8----6-8----6s9999--8-A----
B--8------8------8----------------
G---------------------------------
D---------------------------------
A---------------------------------
E---------------------------------
----------------------------------



   G
Hasta que el invierno deje de pensar

e----6p8----6-8----6s9999--8-A----
B--8------8------8----------------
G---------------------------------
D---------------------------------
A---------------------------------
E---------------------------------
----------------------------------

          D
que la primavera tiene que llegar

e----6p8----6-8----6s9999--8-A----
B--8------8------8----------------
G---------------------------------
D---------------------------------
A---------------------------------
E---------------------------------
----------------------------------


 C
Hasta que la lluvia deje de caer

e----6p8----6-8----6s9999--8-A----
B--8------8------8----------------
G---------------------------------
D---------------------------------
A---------------------------------
E---------------------------------
----------------------------------

       D                     G
y la selva ya no tenga que beber
e----6p8----6-8----6s9999--8-A----
B--8------8------8----------------
G---------------------------------
D---------------------------------
A---------------------------------
E---------------------------------
----------------------------------

 Gkaj                        Bm7
Hasta que las aves ya no tengan sur

e----6p8----6-8----6s9999--8-A----
B--8------8------8----------------
G---------------------------------
D---------------------------------
A---------------------------------
E---------------------------------
----------------------------------

 G                               Cadd9
hasta que a los días les falte la luz

e----6p8----6-8----6s9999--8-A----
B--8------8------8----------------
G---------------------------------
D---------------------------------
A---------------------------------
E---------------------------------
----------------------------------


Gkaj                             D
Hasta que se acaben las olas del mar
e----6p8----6-8----6s9999--8-A----
B--8------8------8----------------
G---------------------------------
D---------------------------------
A---------------------------------
E---------------------------------
----------------------------------



  Bm7                     G
Y que de dolor deje de respirar.........
e----6p8----6-8----6s9999--8-A-(temblando---
B--8------8------8--------------------------
G-------------------------------------------
D-------------------------------------------
A-------------------------------------------
E-------------------------------------------
--------------------------------------------



apoyos:
A=LA
B=SI
C=DO
D=RE
E=MI
F=FA
G=SOL

NOTAS:
    G     D     C    Gkaj Bm7  Cadd9
e---3-----2-----0-----3-----2-----0---.
B---3-----3-----1-----3-----3-----2---.
G---0-----2-----0-----4-----2-----0---.
D---0-----0-----2-----0-----4-----0---.
A---2-----0-----3-----0-----0-----3---.
E---3-----X-----3-----X-----X-----X---.


seguido te esperare<<<<
Aviso: Este fichero es trabajo propio de su transcriptor y representa su interpretación personal de la canción. El material contenido en esta página es para exclusivo uso privado, por lo que se prohibe su reproducción o retransmisión, así como su uso para fines comerciales.

Califica esta canción


Comentarios en Facebook