Enviado por:
anonimo

Danilo Montero, A Jesús Mi Señor

Imprimir
SOLO

E----------16-17-19v--17-16----------------------------
B-15-17-19------------------19-17v--17s15-12-13-12-----
G---------------------------------------------------14v
D------------------------------------------------------
A------------------------------------------------------
E------------------------------------------------------

E-------------------------------------------12-
B-------------------------------------13-15----
G-------------------------------12-14----------
D-------------------------12-14----------------
A-14-15-17-15-14-------------------------------
E----------------17-15v------------------------

E-10-12-14--12-14-15-14-12-------------------------
B--------------------------13-15-17--17p---13-15v-
G--------------------------------------------------
D--------------------------------------------------
A--------------------------------------------------
E--------------------------------------------------

v-vibrato
p-pull of

no esta  al 100% pero se escucha muy,muy, parecido
preguntas a [email protected]
Aviso: Este fichero es trabajo propio de su transcriptor y representa su interpretación personal de la canción. El material contenido en esta página es para exclusivo uso privado, por lo que se prohibe su reproducción o retransmisión, así como su uso para fines comerciales.

Califica esta canción


Comentarios en Facebook