Los Manseros Santiagueños, Pueblo Guitarrero

Imprimir
Wenas viejas, soy Gonza de Fraile Pintado - Jujuy..

esta es la primera transcripción que subo..

La intro e intermedio de "Pueblo guitarrero",
que era lo que faltaba, la saqué hueviando con
un amigo fana de los manseros..
creo que suena bastante bien, creo

igualmente algún que otro error debe tener, supongo..

INTRO E INTERMEDIO

e|-/8--8-8-8-8-----------------------------------------|
B|-/9--9-9-9-9--11-11-9--11-11----11-11--9--9--8-9--9--|
G|--------------12-12-10-12-12----12-12--10-10-9-10-10-|
D|-----------------------------------------------------|
A|-----------------------------------------------------|
E|-----------------------------------------------------|

e|----------------------|---------------------8-6-6--
B|-9--9---8-8---6-8-6-5-|-/9---9--9--9--9--9--9-8-8--
G|-10-10--9-9---7-9-7-5-|-/10-10-10-10-10--10--------
D|----------------------|----------------------------
A|----------------------|----------------------------
E|----------------------|----------------------------

                                         EN LA SEGUNDA VEZ
                                   TERMINA CON ESTA HUEVADA
------6----------|------6-8-------------|  |---13--|
-8-9--8-8-9--6---|-8-9--8---------------|  |-------|
-9-10---9-10-6---|-9-10------10---------|  |-13----|
-----------------|-------------10-6-----|  |-------|
-----------------|------------------8---|  |-------|
-----------------|----------------------|  |-------|










OTRO PEQUEÑO RIFF QUE SE ESCUCHA ENTRE EL VERSO

e|-------------|
B|-------------|
G|-------------|
D|-----8-5-----|
A|-6-8----8-6--|
E|-------------|

Y ENTRE ESTOS MISMOS VERSOS SE ESCUCHAN TAMBIÉN
ARMÓNICOS ARPEGIADOS DE ESTOS ACORDES

   F   Am  D  G  (y así con los respectivos
                   acordes que acompañan)

e|-5---5---5---7-------------------|
B|-6---5---7---8-------------------|
G|-5---5---7---7-------------------|
D|---------------------------------|
A|---------------------------------|
E|---------------------------------|


BUEHH.. SALUDOS PARA LA GENTE DE FRAILE..

A TODOS USTEDES, QUE ANDEN BIEN CHEEE..


LedFoot - GnR - RnR

[email protected]
Aviso: Este fichero es trabajo propio de su transcriptor y representa su interpretación personal de la canción. El material contenido en esta página es para exclusivo uso privado, por lo que se prohibe su reproducción o retransmisión, así como su uso para fines comerciales.

Califica esta canción


Comentarios en Facebook