Enviado por:
anonimo

Danilo Montero, Padre En Tí

Imprimir
HoLA aqui les doy el tab de esta gran cancion que estoy seguro que
les va a gustar, Gracias le d0y al Señor Jesús por haberme dado de
su amor y su perdón, saludos a los jóvenes de la iglesia
Pentecostal de Pto. Bolívar en MAchala - Ecuador....

InTRO:
  00:24                               00:32
   E                   B    E         A
e|-----------------------------------------|
B|-9--7--9--10--7--10--7-----9--7--9--10---|
G|-----------------------------------------|
D|-----------------------------------------|
A|-----------------------------------------|
E|-----------------------------------------|

Solo de GuitarrA:
           02:44
            G       D/F#              C#m
e|------------------9s10---9--(-7h9-9---7h9-9-)----|
B|-------------------------------------------------|
G|----------7--6-----------------------------------|
D|---9s7h6-------7---------------------------------|
A|-------------------------------------------------|
E|-------------------------------------------------|

                                   B/D#                  G
e|--9.-9.-7.-9.-7.---------------------------------------------|
B|-------------------------------------------------------------|
G|-----------------9--------9-9----9-8-------------------------|
D|--------------------9s11-------9-----9-----------------------|
A|---------------------------------------9---------------------|
E|-----------------------------------------9s11s9-12--11-10s0--|

                                  03:00
                            D/F#
e|-------------------------10--9--10vv--s-0-----|
B|----------7-10---9-10-------------------------|
G|-----7-9--------------------------------------|
D|---7------------------------------------------|
A|----------------------------------------------|
E|----------------------------------------------|

      03:02                                    03:06
      E      F#     G      A       B       C    D
e|----------------------------------------------10---|
B|----5------7------8------10------12------13--------|
G|---------------------------------------------------|
D|---------------------------------------------------|

OuTRO:
    03:56              04:00    04:02                    04:06
     G                 Em        G                       Em
e|--------------------------||------------------------------------|
B|--------------------------||------------------13-12-------------|
G|---12-----------12----9---||---12-------------------12--9-------|
D|-------12-10-9-----9------||------12---10---9-------------------|
A|--------------------------||------------------------------------|
E|--------------------------||------------------------------------|

    04:08              04:12    04:13               04:18
     G                 Em        G                  Em
e|--------------------------||------------------------------------|
B|--------------------------||------------------------------------|
G|---12-----------12----9---||---12---------------12-9------------|
D|-------12-10-9-----9------||------12---10---9-------------------|
A|--------------------------||------------------------------------|
E|--------------------------||------------------------------------|

EN ESA PARTE DE (-7h9-9---7h9-9-) parece que solo son 4 toques pero
no, tocas en 7 luego hamer en el 9 y luego tocas el 9, pero eso si
tienen que ponerse pilas con la practica,estoy seguro que lo lograran.

-9.-9.-7.-9.-7- los puntos significan toques rapidos

cualquier duda - comentario o sugerencia por favor a
[email protected]

Chaoooooooooooooo!!!!!!!!!!!!!!!!!!!
Aviso: Este fichero es trabajo propio de su transcriptor y representa su interpretación personal de la canción. El material contenido en esta página es para exclusivo uso privado, por lo que se prohibe su reproducción o retransmisión, así como su uso para fines comerciales.

Califica esta canción


Comentarios en Facebook