Enviado por:
anonimo

No Te Va Gustar, Tenés Que Saltar

Imprimir
Intro (aerófonos):

e-/----------------------------------------
b-/----------------------------------------
g-/-----5-6-8-6-5-------5-6-8-6-5-6_5------
d-/---8-------------6-8---------------8-6-8
a-/---------------8------------------------
e-/----------------------------------------

e-/----------------------------------------
b-/-------7---6-----7---6------------------
g-/---8-8---8---8-8---8---6-5-8-8-6-5------
d-/-----------------------------------8----
a-/----------------------------------------
e-/----------------------------------------

e-/----------------------------------------
b-/-------7---6----------------------------
g-/---8-8---8----6-8_6-5-------------------
d-/----------------------6-8---------------
a-/----------------------------------------
e-/----------------------------------------

_=ligar (pull off o hammer on)
Aviso: Este fichero es trabajo propio de su transcriptor y representa su interpretación personal de la canción. El material contenido en esta página es para exclusivo uso privado, por lo que se prohibe su reproducción o retransmisión, así como su uso para fines comerciales.

Califica esta canción


Comentarios en Facebook