Enviado por:
anonimo

Danilo Montero, Cantaré De Tu Amor Por Siempre

Imprimir
           ESTO ES LA ESTROFA
         G---------------------|
         D-------4-44-2-22-----| X2
         A-----------------5-55|
         E--5-55---------------|


               CORO
         G-----------------------|
         D------2-2-2-4-4-4------|
         A-----------------5-5-5-|
         E-5-5-5----------------5|


               ESTRIBILLO
         G-----------------------------------------------|
         D------2~--------2~---------------------2~------|
         A-2~--------2~--------2~------6~----------------|
         E-----------------------------------------------|



           LA PRIMERA VEZ Y UNICA QUE TOQUE ESTE CANTO
           FUE EN LA BATAKA PERO EN BAJO ESTA MUY FACIL


          DIOS LES BENDIGA
Aviso: Este fichero es trabajo propio de su transcriptor y representa su interpretación personal de la canción. El material contenido en esta página es para exclusivo uso privado, por lo que se prohibe su reproducción o retransmisión, así como su uso para fines comerciales.

Califica esta canción


Comentarios en Facebook