Enviado por:
anonimo

No Te Va Gustar, El Error

Imprimir
Intro:

G|---------------------------------------------|
D|---------------------------------------------|
A|-----5-6-8-88-------6-5----------------------|
E|-6-6----------6-8-8-----8-3-1----------------|

G|---------------------------------------------|
D|---------------------------------------------|
A|-----5-6-8-88-------6-5----------------------|
E|-6-6----------6-8-8-----8-3-1-6--------------|

Quien es usted impostor? ..

G|---------------------------------------------|
D|--------------5----------3-3---5-------------|
A|-------5-66-----6------5-----5---------------|
E|-3-6-8------6-----66-6-----------3-----------|

G|---------------------------------------------|
D|--------------5---------3-3---5--------------|
A|-------5-66-----6-8---5-----5----------------|
E|-6-8--------6-------6------------3-----------|

Él la vio una sola vez,

G|---------------------------------------------|
D|------------5----------3-3---5---------------|
A|-----5-66-----6------5-----5-----------------|
E|-6-8------6-----66-6-----------3-------------|

G|---------------------------------------------|
D|------------5---------3-3-55-3-5-55-3-5------|
A|-----5-66-----6-8---5------------------------|
E|-6-8------6-------6--------------------------|

Los dos sintieron lo mismo,

G|---------------------------------------------|
D|------------5----------3-3---5---------------|
A|-----5-66-----6------5-----5-----------------|
E|-6-8------6-----66-6-----------3-------------|

G|---------------------------------------------|
D|------------5---------3-3-55-3-5-3-5-55-5-3--|
A|-----5-66-----6-8---5------------------------|
E|-6-8------6-------6--------------------------|

Estribillo

G|---------------------------------------------|
D|---------------------------------------------|
A|-----5-6-8-88-------6-5----------------------|
E|-6-6----------6-8-8-----8-3-1----------------|

G|---------------------------------------------|
D|---------------------------------------------|
A|-----5-6-8-88-------6-5----------------------|
E|-6-6----------6-8-8-----8-3-1-6--------------|

ESPERO LES GUSTE!

VOY A SUBIR MUCHOS MAS TAB DE BAJO DE NOTEVAGUSTAR!

ELIAS C.
Aviso: Este fichero es trabajo propio de su transcriptor y representa su interpretación personal de la canción. El material contenido en esta página es para exclusivo uso privado, por lo que se prohibe su reproducción o retransmisión, así como su uso para fines comerciales.

Califica esta canción


Comentarios en Facebook