Los Manseros Santiagueños, Zamba De Tu Adios

Imprimir
El punteo lo saque yo porque me lo pidieron...^^
XxGuevaraxX

        LAm                SOL          SOL            LAm
1|-12-10-12---------|------------------|-----------------------------
2|----------13-12-10|12-10-8-8-10-12-12|8-8-10-12-10-8-10-8-10-12-13-
3|------------------|------------------|-----------------------------
4|------------------|------------------|-----------------------------
5|------------------|------------------|-----------------------------
6|------------------|------------------|-----------------------------

         LAm               SOL          FA      (MI7)  LAm
1|-12-10-12---------|------------------|---------10-8-----|-----
2|----------13-12-10|12-10-8-8-10-12-12|9-9-10-12----12-10|1-0-1
3|------------------|------------------|------------------|-----
4|------------------|------------------|------------------|-----
5|------------------|------------------|------------------|-----
6|------------------|------------------|------------------|-----
Aviso: Este fichero es trabajo propio de su transcriptor y representa su interpretación personal de la canción. El material contenido en esta página es para exclusivo uso privado, por lo que se prohibe su reproducción o retransmisión, así como su uso para fines comerciales.

Califica esta canción


Comentarios en Facebook