Enviado por:
anonimo

Música De Tv, El Pájaro Loco

Imprimir
Hola, aca les traigo el tema del pajaro loco
Estoy seguro que esta bien.Cualquier cosa manden
mensaje a mi correo

E ----7--10-7--|---7--10-7-|-10-7-8-10-8-7---10--
B ---8---------|--8--------|---------------10----
G --7----------|-7---------|---------------------
D -0-----------|-----------|---------------------
A -------------|-----------|---------------------
E -------------|-----------|---------------------


E ----7--10-7--|---7--10-7-|-10-7-8-10-8-7---8---
B ---8---------|--8--------|---------------10----
G --7----------|-7---------|---------------------
D -0-----------|-----------|---------------------
A -------------|-----------|---------------------
E -------------|-----------|---------------------
Aviso: Este fichero es trabajo propio de su transcriptor y representa su interpretación personal de la canción. El material contenido en esta página es para exclusivo uso privado, por lo que se prohibe su reproducción o retransmisión, así como su uso para fines comerciales.

Califica esta canción


Comentarios en Facebook