Enviado por:
anonimo

Música De Tv, Saint Seiya - Pegasus Fantasy

Imprimir
Este es el tema de los caballeros del zodiaco del intro de la serie
normal, esa cuando tienen las armaduras pencas con casco...



Este intro lo saco tambien una octava mas baja y suena bn igual

E|-------------------------------------------------------------|
B|-------------------------------------------------------------|
G|-------------------------------------------------------------|
D|-----5--3----------------------------------5--3------6~~-----| x2
A|3--6------5-------3--6--5------------3--6-------5------------|
E|-------------6--4---------6--4--------------------6----------|


Esta es la melodia :)
|--------1--3---3-1-1---1-------------------1----1-3-3---3-6-7--|
|-1-3-4---------------4---4-3---1-3-4---3-4----4----------------|
|---------------------------------------------------------------|
|---------------------------------------------------------------|
|---------------------------------------------------------------|
|---------------------------------------------------------------|

|-------1--3---3-1-1---1------------------3-1-----------|
|-1-3-4--------------4--4-3---1-3-4--3-1-4---4--3-3-1---|
|--------------------------------------------------3----|
|-------------------------------------------------------|
|-------------------------------------------------------|
|-------------------------------------------------------|

|-4--3-3-1-3--1-1-------6-4-3-1---------------------1----1-----------|
|------------------------------4--1-3-4--3-1-4--3-1--4-3-------0-1-3-|
|-----------------3-3-3-----------------------------------3-3-3------|
|--------------------------------------------------------------------|
|--------------------------------------------------------------------|
|--------------------------------------------------------------------|

|-1--3-3--1-3-1-------3----1-1--1-6--4-3-1-3--1-3--|
|---------------4-3-1-----3------------------4-----|
|--------------------------------------------------|
|--------------------------------------------------|
|--------------------------------------------------|
|--------------------------------------------------|

|-1--3-3--1-3-1-------3-----1-1------1-1---4-3-1-3--|
|---------------4-3-1----3-4------3-4---------------|
|---------------------------------------------------|
|---------------------------------------------------|
|---------------------------------------------------|
|---------------------------------------------------|

En caso de ke les cueste sacarla, lo unico ketienen ke hacer
es elevar su cosmo a lo mas alto y ya veran ke sale mas facil :)
Aviso: Este fichero es trabajo propio de su transcriptor y representa su interpretación personal de la canción. El material contenido en esta página es para exclusivo uso privado, por lo que se prohibe su reproducción o retransmisión, así como su uso para fines comerciales.

Califica esta canción


Comentarios en Facebook