Enviado por:
anonimo

Danilo Montero, Has Aumentado

Imprimir
Has aumentado ¡oh Dios! tus maravillas,
G:-----------------------------------
D:-----------------------------------
A:----------------2-2----------------
E:0-0--3-3s--2-2---------------------

  enumerarlas no puedo.

G:-----------------------------------
D:-----------------------------------
A:--------0-2-------------------------
E:0-0-3-3------------------------------

  Si yo anunciare y hablare de ellas,

G:-----------------------------------
D:-----------------------------------
A:------------------------2-2--------
E:0-0--0--3-3--3s--2-2--2------------

  no hay tiempo para terminar.

G:-----------------------------------
D:-----------------------------------
A:3--3--3-3--3-3s-2-2-2--------------
E:-----------------------------------

Has aumentado ¡oh Dios! tus maravillas

G:-----------------------------------
D:-----------------------------------
A:----------------2-2----------------
E:0-0--3-3s--2-2---------------------

  y ya no puedo contarlas.

G:-----------------------------------
D:-----------------------------------
A:-------------0s-2------------------
E:0-0-0--3-3-3-----------------------

 Misericordia me das día tras día,

G:-----------------------------------
D:-----------------------------------
A:------------------------2-2--------
E:0-0-0-3-3--3s-2--2-2--2------------

 tu canto en mi boca estará.

G:-----------------------------------
D:-----------------------------------
A:3--3-3--3--3--3-3--3s-2-2----------
E:-----------------------------------

Grandes son tus obras,

G:-----------------------------------
D:-----------------------------------
A:-----------------------------------
E:0-0-0-0-3-3------------------------

  poderío y majestad.

G:-----------------------------------
D:-----------------------------------
A:-------------3-5-------------------
E:-3-3-3-5-5-5-----------------------

  Tuyo es todo imperio,

G:-----------------------------------
D:-----------------------------------
A:-----------------------------------
E:0-0-0-0-0-0-3-3--------------------

  toda gloria y potestad.

G:-----------------------------------
D:-----------------------------------
A:--------------3-2------------------
E:3-3-5-5-5-5-5----------------------

   Grande es tu dominio

G:-----------------------------------
D:-----------------------------------
A:-----------------------------------
E:0-0-0-0-3-3-3-----------------------------

  el universo lleno está de tu poder
G:-----------------------------------
D:-----------------------------------
A:--------------3-5-0----------------
E:3-3-3-5-5-5-5------7-7-7-----------

 Grande eres Tú.

G:-----------------------------------
D:-----------------------------------
A:-----------------------------------
E:7-7-6-5-4-0------------------------


nota: los ultimos 7 (si) van marcando el tiempo
Aviso: Este fichero es trabajo propio de su transcriptor y representa su interpretación personal de la canción. El material contenido en esta página es para exclusivo uso privado, por lo que se prohibe su reproducción o retransmisión, así como su uso para fines comerciales.

Califica esta canción


Comentarios en Facebook