Enviado por:
anonimo

Sin Bandera, Demorado

Imprimir
ESTA CANCIÓN ESTA CHEVERE ; ESPERO QUE HAGAN LO QUE QUIEREN Y
CUMPLAN SUS-SUEÑOS*************************
SIN BANDERA>>>>>>>>>>>>>>>>>>>>>>>>>>>>>
SALUDOS AL INSTITUTO /LEANDRO ALVIÑA MIRANDA/
SE MUSICA____>>>>>>>>>>>>>>>>>>>>>>>>>>>>><



INTRO:>>>>>>>>>>>>>>>>>>>>>>>>>>>
e----6-8----6-8----6--9999--8-----
B--8------8------8----------------
G---------------------------------
D---------------------------------
A---------------------------------
E---------------------------------


e----6-8----6-8----6---------------
B--8------8------8----99--8--6-----
G------------------------------8---
D----------------------------------
A----------------------------------
E----------------------------------

______________________________________________________
______________________________________________________


e--6-6-6----------------------------------------------
B---------9--8-9-9--9-8---8-8--8----------------------
G-----------------------10-------10-8-10(temblando)---
D-----------------------------------------------------
A-----------------------------------------------------
E-----------------------------------------------------
________________________________________________________

siente como te amo toma mi mano ven a soñar...............



-------------------------------------------------------


e--6-6-6---11-------------------------------------------------
B-------------11-11-------------------------------------------
G-------------------13--13-12---12-12--12--10---10(temblando)-
D----------------------------15---------------13--------------
A-------------------------------------------------------------
E-------------------------------------------------------------
______________________________________________________________

deja todo lo malo por que te peas para volar..............



------------------------------------------------------------

e--8-6---8-6---8-6---8-8-9999--8-------------
B------8-----8-----8-------------------------
G--------------------------------------------
D--------------------------------------------
A--------------------------------------------
E--------------------------------------------
______________________________________________________________

mirame una vez una mas y ahora duerme que aquie estoy....



-----------------------------------------------------------

e-----------------------------------------------------
B--8-6---8-6---8-8---9-9--8----8----------------------
G------8-----8--------------10----10-8(temblando)-----
D-----------------------------------------------------
A-----------------------------------------------------
E-----------------------------------------------------


_________________________________________________________
no mi ire mi lugar es aqui
cuidandote>>>>>>>>>>>>>>>>>>><
Aviso: Este fichero es trabajo propio de su transcriptor y representa su interpretación personal de la canción. El material contenido en esta página es para exclusivo uso privado, por lo que se prohibe su reproducción o retransmisión, así como su uso para fines comerciales.

Califica esta canción


Comentarios en Facebook