Enviado por:
anonimo

Danilo Montero, Siempre Estarás A Mi Lado

Imprimir
Solo

1 parte

E----------------------
B--------------11------
G-6-8-10-6-8-10-12-----

2 parte

B.-----------15s17-15-17-15-14
G-------13-15-----------------
D--13h15----------------------

3 parte

G-10-10s11--------------
D---------11-10---------
A--------------11s13-11-
E-----------------------9

4 parte
esta parte se hace rapìda se repite 8 veces

B--11-13--14


5 parte

E--------------------16v
B--14-16s18-14-16s18----

6 parte

D--6h8---6h8---------------
G-----6-----6--88-6-8-6----
B----------------------7s9v
Aviso: Este fichero es trabajo propio de su transcriptor y representa su interpretación personal de la canción. El material contenido en esta página es para exclusivo uso privado, por lo que se prohibe su reproducción o retransmisión, así como su uso para fines comerciales.

Califica esta canción


Comentarios en Facebook