Enviado por:
anonimo

No Te Va Gustar, Todo El Día

Imprimir
        No   pido perdon      No  digo mi amor

  A            F          A          F
E----0--0-------1--1-------0--0-------1--1--------
B----2---2-2----1---1-1----2---2-2----1---1-1-----
G----2----2-----2----2-----2----2-----2----2------
D----2----------3----------2----------3-----------
A-0-----------------------0-----------------------
E--------------1---------------------1------------


        No siento dolor       No tengo razon

  A            F          A          F
E----0--0-------1--1-------0--0-------1--1--------
B----2---2-2----1---1-1----2---2-2----1---1-1-----
G----2----2-----2----2-----2----2-----2----2------
D----2----------3----------2----------3-----------
A-0-----------------------0-----------------------
E--------------1---------------------1------------

   Dm                   G
Lo unico que hago es pensarte todo el dia

A      F        A       F
No quiero llorar, no puedo llorar

A      F        A        F
no quiero llamar, no quiero pensar

     Dm                   G
y lo único que hago es pensarte todo el día


A (con melodia de trompetas arriba)

C         G
Sigo durmiendo en diagonal


A  (con melodia de trompetas arriba)

C        G
Sigo viviendo en diagonal

A      F         A        F
Me cuesta olvidar, me cuesta zafar

A      F       A        F
me cuesta soñar, me cuesta cantar

      Dm                   G
si lo único que hago es pensarte todo el día


A (con melodia de trompetas arriba)


E         A          D    E       A                G
Las horas pasan y te vas, la vida pasa y vos no estás

C        G             A    F   C         G
Sigo durmiendo en diagonal       sigo muriendo


 A            F          A          F
E----0--0-------1--1-------0--0-------1--1--------
B----2---2-2----1---1-1----2---2-2----1---1-1-----
G----2----2-----2----2-----2----2-----2----2------ x2
D----2----------3----------2----------3-----------
A-0-----------------------0-----------------------
E--------------1---------------------1------------

A       F        A      F
No quiero llorar, No puedo llorar

A      F        A        F
no quiero llamar, No quiero pensar

     Dm                    G                  A
y lo único que hago es pensarte todo el día

      F
No quiero pensar

  Dm                    G                     A
y lo único que hago es pensarte todo el día


Saludos cualquier duda mi msn es [email protected]
Aviso: Este fichero es trabajo propio de su transcriptor y representa su interpretación personal de la canción. El material contenido en esta página es para exclusivo uso privado, por lo que se prohibe su reproducción o retransmisión, así como su uso para fines comerciales.

Califica esta canción


Comentarios en Facebook