Enviado por:
Anonimo

Danilo Montero, Te Alabare Mi Buen Jesus

Imprimir
la entrada lo hace una guitarra acústica rasgueando, y despues entra otro
instrumento que no se cual es exactamente a lo mejor es flauta O teclado, bueno 
lo que hace este instrumento lo puede hacer la guitarra como una especie
de punteo inicial ahi les lo mando:

E ---7-7-----
B ------3-5--
G -----------
D -----------
A -----------
E -----------

esta parte lo hace un teclado (creo)

E -7-5-4-----7-7-5-4---7s9-7-
B -------5-7---------5-------
G ---------------------------
D ---------------------------
A ---------------------------
E ---------------------------
 
E            B               C#m          A    
Eres tu la unica razon de mi adoracion oh Jesus
E           B            C#m           A    
eres tu la esperanza que anhele tener oh Jesus

F#m                 B
confie en ti me has ayudado
F#m                   B
tu salvacion me has regalado

E                   B             C#m         B       
hoy hay gozo en mi corazon, con mi canto te ALABARE

 F#      C#     D#     B   
TE ALABARE  TE GLORIFICARE
F#       C#        B
TE ALABARE MI BUEN JESUS

e --7-7-5-7-7-5-7-7-5-7-9----
B ---------------------------
G --------------------------- (SI NOTAS BIEN ESTO LO HACE EL BAJO
D ---------------------------  PERO EN GUITARRA SUENA MOSTRO)
A ---------------------------   creo 	ue despues lo hace el teclado 
E ---------------------------

 F#      C#     D#      B   
TE ALABARE  TE GLORIFICARE
F#      C#         B
TE ALABARE MI BUEN JESUS

e --7-7-5-7-7-5-7-7-5-7-9----
B ---------------------------
G ---------------------------
D ---------------------------
A ---------------------------
E ---------------------------


A         D         Em
en todo tiempo te alabare
A         D        B 
en todo tiempo te adorare

 F#      C#     D#     B   
TE ALABARE  TE GLORIFICARE
F#       C#        B
TE ALABARE MI BUEN JESUS

(REPITES LOS PUNTEOS)

Fuente original: LaCuerda
Colaborador original: Christian Obregon Bringas [[email protected]]
Aviso: Este fichero es trabajo propio de su transcriptor y representa su interpretación personal de la canción. El material contenido en esta página es para exclusivo uso privado, por lo que se prohibe su reproducción o retransmisión, así como su uso para fines comerciales.

Califica esta canción


Comentarios en Facebook