Enviado por:
anonimo

No Te Va Gustar, Sin Pena Ni Gloria

Imprimir
Intro: G  D  Em  C  D

e/-----------------------------------------------------------------
B/--5-3------------------------------------------------------------
G/--------5-4---------------------------4-5-----5-5-5/7--7-7-7/9---
D/-------------7--------5-7-9-------5-7----------------------------
A/----------------5-----------7---7--------------------------------
E/-----------------------------------------------------------------


Em                 Bm
Tengo casi ochenta años,
           C                       D         riff: E/-0---0-2-3--3-2-3-0--
Y no hice nada por nadie, nada por nadie.
Em                      Bm
Pasaron pestes, pasaron guerras
           C                       D         riff: E/-0---0-2-3--3-2-0--
Y no hice nada por nadie, nada por nadie
Em                            Bm
Mis hermanas y mis hermanos sufrían,
            C          Cm
Y yo estaba ahí, yo seguí ahí…


G                               D
Quisiera saber ¿qué hago para apagar este fuego
              Em                       C        Cm
¿Por qué Dios me dio los ojos, si prefería ser ciego?

e/-----------------------------------------------------------------
B/--5-3------------------------------------------------------------
G/--------5-4---------------------------4-5-----5-5-5/7--7-7-7/9---
D/-------------7--------5-7-9-------5-7----------------------------
A/----------------5-----------7---7--------------------------------
E/-----------------------------------------------------------------

(Tapando las cuerdas al principio)

¿Qué debería pasarme por haber sido egoísta?
Algo peor que esta culpa no creo que exista
¿Para qué quiero las flores, las nubes y las estrellas?
Si ahora me dan lo mismo y no disfruto de ellas

Quisiera saber ¿qué hago para apagar este fuego?
¿Por qué Dios me dio los ojos, si prefería ser ciego?

Em                     B7   Em                     B7
Nunca me metí en problemas, no quedé en ninguna historia
Em                     B7   C
no sé de glorias ni penas, me iré sin pena ni gloria

quisiera saber ¿qué hago para apagar este fuego
¿por qué Dios me dio los ojos, si prefería ser ciego?

quisiera saber ¿qué hago para apagar este fuego
¿por qué Dios me dio los ojos, si prefería ser ciego?

Em B7 (X4)
Aviso: Este fichero es trabajo propio de su transcriptor y representa su interpretación personal de la canción. El material contenido en esta página es para exclusivo uso privado, por lo que se prohibe su reproducción o retransmisión, así como su uso para fines comerciales.

Califica esta canción


Comentarios en Facebook