Enviado por:
Anonimo

Danilo Montero, Es Jesus

Imprimir
01:46
e|---------------------------------------------------------------------|
B|---------------------------------------------------------------------|
G|---------------------------------------------------------------------|
D|---------------------------------------------------------------------| X3
A|-------------3---5---2-----------------------------------------------|
E|-0---2---3-----------------------------------------------------------|


   02:10               02:18
e|---------------------------12h14-15-17b18--17-15------------------------------|
B|---------------------12h14-----------------------17--15-17-15-----------------|
G|------------------------------------------------------------------------------|
D|---------------------------------------------------------------10s12-13-12-10-| 
A|-------------3----------------------------------------------------------------|
E|-0---2---3--------------------------------------------------------------------|
Siempre te exaltaré...



e|------------------------------10s12--10-12s14--12-14h15-14--12-------|
B|---------------------------------------------------------------------|
G|--7h9h7---------------7h9s11-----------------------------------------|
D|---------9-7s5----7s9------------------------------------------------| 
A|---------------------------------------------------------------------|
E|---------------------------------------------------------------------|



                                   02:35
e|---------------------------------15----------------------------------|
B|-13-13s15-13-15s17-17b19b17--15--------------------------------------|
G|---------------------------------------------------------------------|
D|---------------------------------------------------------------------| 
A|---------------------------------------------------------------------|
E|---------------------------------------------------------------------|
                                        A Jesús mi Señor...




Las Notas son estas (Para que otro instrumento 
las toque, mientras te toca el "solo" de guitarra):

Em  D/F#  G C  D Bm
Siempre te amaré
Em  D/F  G C  D Bm
siempre te adoraré
Em  D/F#  G C  D Bm
siempre te cantaré
Em  D/F#  G C  
siempre te exaltaré...

Em D G C
Em D G C D Em D G
                A Jesús mi Señor...


-Este "solo" de guitarra lo saqué a oido,
 así que debe tener errores.CHAO!YoP!

- http://guia.atame.org/simbol.html  <---En esa dirección 
encontrarán ayuda de como leer la tablatura
(14s16 ;  8h10 ,  cosas así).

Fuente original: LaCuerda
Colaborador original: Juan Pablo Benítez [[email protected]]
Aviso: Este fichero es trabajo propio de su transcriptor y representa su interpretación personal de la canción. El material contenido en esta página es para exclusivo uso privado, por lo que se prohibe su reproducción o retransmisión, así como su uso para fines comerciales.

Califica esta canción


Comentarios en Facebook