Enviado por:
Anonimo

Danilo Montero, Es Grande

Imprimir
Estos son los acordes que acompañan el solo de guitarra:

F - Gm7 - Ab - Bb  x 2


   Gm7
e|--x--|
B|--x--|
G|--3--|
D|--3--|
A|--1--|
E|--3--|




          v       v
e|--------13-----------------------------------------------------------|
B|------------16b18----13-15-15-14-13----------------------------------|
G|--12s14-----------------------------15-17-13-15----------------------|
D|------------------------------------------------15-------------------|
A|---------------------------------------------------------------------|
E|---------------------------------------------------------------------|



                        (2 notas
                        sonando)  v               v
e|---------------------------------------------------------------------|
B|----------------------16______---------------------------------------|
G|--13-15s16s15-13--------15b17---13-----------------------------------|
D|-----------------15-----------------15--15s17-15s13-15---------------|
A|--------------------------------------------------------15-13-12-----|
E|---------------------------------------------------------------------|


v = Vibrato, debes hacer vibrar la cuerda.


Dedicado a una persona especial:

     ^O.o^ eMeLyn ^o.O^

Fuente original: LaCuerda
Colaborador original: Juan Pablo Benítez [[email protected]]
Aviso: Este fichero es trabajo propio de su transcriptor y representa su interpretación personal de la canción. El material contenido en esta página es para exclusivo uso privado, por lo que se prohibe su reproducción o retransmisión, así como su uso para fines comerciales.

Califica esta canción


Comentarios en Facebook