Enviado por:
Anonimo

Danilo Montero, Eres Todopoderoso

a mi criterio este es el requinto de la cancion
      al principio.
       


     e---------------------------------------------------------------------.
     b-------------------------------------------7-------------------------.
     g-------------------------------7--------7----7-----7-----------------.
     d-----------------------7/9---------9------------9-----9----7-----9---.
     a---------------------------------------------------------------------.
     E---------------------------------------------------------------------.
     
      despues de la primera parte dela cancio es otra vez  el re quinto pero asi



     e-----------------------------------------------------------------------
     b--------------------------------------------7--------------------------
     g--------------------------------7--------7----7------------------------
     d-----------------------7/9-----------9------------9----------------9---
     a----------------------------------------------------------------9------
     E--------------------------------------------------------7--------------
     
     necesitas escuchar la rola bien porque en la segunda parte de la cancion 
     alfinal utiliza un Bm y le da un rasgueo un poco dificil pero lo marco con 
     con un B en el 7 traste.
     
     y este es el solo del intermedio de la cancion.

     

    e----------------------------------5-----3---2-----5-----------------------------10-----12-----12/14--12----------
    b-------3----5---7-----3---5---7-------------------------3--5--7-------3--5--7------------------------------------
    g-----------------------------------------------------------------------------------------------------------------
    d-----------------------------------------------------------------------------------------------------------------
    a-----------------------------------------------------------------------------------------------------------------
    E-----------------------------------------------------------------------------------------------------------------

    asi despues del requinto la rola sube un tono a C#m  esto es  todo  es para todos usteds que lo han pedido
    al final se repite el requinto de nuevo, pero eso lo pongo despues .
    para culquier peticion personal escribanme a mi e-mail. dios los bendiga.

Fuente original: LaCuerda
Colaborador original: magarito romero sanchez [[email protected]]
Aviso: Este fichero es trabajo propio de su transcriptor y representa su interpretación personal de la canción. El material contenido en esta página es para exclusivo uso privado, por lo que se prohibe su reproducción o retransmisión, así como su uso para fines comerciales.

Califica esta canción


Comentarios en Facebook