Enviado por:
anonimo

No Te Va Gustar, No Te Quiero Acá

Imprimir
/1111233321-
/-----------
/-----------
/-----------

Yo no te quiero no te quiero aca...
disfruta tal vez mañana no estes mas...
/-------------------------------------------------
/3(x14)-2(x14)-0-000000----------000000-----------x2
/----------------------555-333-22------555-333-22-
/-------------------------------------------------

quien sabe a donde
quien lo podra saber a donde fuiste para quedar asi
yo no me explico como llegaste ahi
si ese no era tu lugar
les prometiste al pasar una mentira
que creyeron sin protestar
yo no te escucho qeu ahora quieras darme pena
y te largues a llorar

/------0(x14)-------1111233321-
/3(x14)------0(x14)------------x4
/------------------------------
/------------------------------

Yo no te quiero no te quiero aca...
disfruta tal vez mañana no estes mas...
/-------------------------------------------------
/3(x14)-2(x14)-0-000000----------000000-----------x2
/----------------------555-333-22------555-333-22-
/-------------------------------------------------

te gustaria tener mi guitarra,
no me interesa tener tu sillon
por que estas solo

/------1(x24)------3(x24)-
/3(x24)------3(x24)-------
/-------------------------
/-------------------------

ahora sigue la parte de las trompetas,
hace las mismas notas qeu recien..

por unos pesos qeures empesar una guerra
y no importa contra quien
si esa es tu casa andate pero ya no vuelvas
por favor no vuelvas

/------0(x14)-------1111233321-
/3(x14)------0(x14)------------x2
/------------------------------
/------------------------------

Yo no te quiero no te quiero aca...
disfruta tal vez mañana no estes mas...
/-------------------------------------------------
/3(x14)-2(x14)-0-000000----------000000-----------x2
/----------------------555-333-22------555-333-22-
/-------------------------------------------------


te gustaria tener mi guitarra,
no me interesa tener tu sillon
por que estas solo

/------1(x24)------3(x24)-
/3(x24)------3(x24)-------
/-------------------------
/-------------------------

te gustaria tener mi guitarra,
no me interesa tener tu sillon
por que estas solo

/------1(x24)------3(x24)-
/3(x24)------3(x24)-------
/-------------------------
/-------------------------

te gustaria tener mi guitarra,
no me interesa tener tu sillon
por que estas solo

/------1(x24)------3(x24)-
/3(x24)------3(x24)-------
/-------------------------
/-------------------------

/1-1-1----3-3-3----
/----------------3-
/------------------
/------------------

falta un par de cositas.. jeje
Aviso: Este fichero es trabajo propio de su transcriptor y representa su interpretación personal de la canción. El material contenido en esta página es para exclusivo uso privado, por lo que se prohibe su reproducción o retransmisión, así como su uso para fines comerciales.

Califica esta canción


Comentarios en Facebook