Enviado por:
Anonimo

Danilo Montero, Celebrad A Cristo

Imprimir
Intro:

G-----------------------------------------------------
D-----------------------------------------------------
A----4-7---6--9-----7---------------------------------
E--5-----7-------7------------------------------------

ESTROFA:

G-----------------------------------------------------
D-----------------------------------------------------
A--7--7--------7-----4--7-----6--9-----7--------------
E--------5--7-----5--------7--------7-----------------
  CELEBRAD A CRISTO, CELEBRAD

G-----------------------------------------------------
D-----------------------------------------------------
A--7--7--------7---3--5-------------------------------
E--------5--7-----------------------------------------
  CELEBRAD A CRISTO, CELEBRAD

G-----------------------------------------------------
D-----------------------------------------------------
A--7--7--------7-----4--7-----6--9-----7--------------
E--------5--7-----5--------7--------7-----------------
  CELEBRAD A CRISTO, CELEBRAD

G-----------------------------------------------------
D-----------------------------------------------------
A--7--7--------7--7--7--7-----------------------------
E--------5--7-----------------------------------------
  CELEBRAD A CRISTO, CELEBRAD

CORO:

G-----------------------------------------------------
D-----------------------------------------------------
A--2----------2-2-----------4--1-----1--4-4--1-----1--
E-----4--2--4------4--2--4--------4-------------4-----
  RESUCITO                  RESUCITO

G-----------------------------------------------------
D-----------------------------------------------------
A--2----------2-2-----------4--1-----1--4-4--1-----1--
E-----4--2--4------4--2--4--------4-------------4-----
  Y EL VIVE                PARA SIEMPRE

G-----------------------------------------------------
D-----------------------------------------------------
A--2----------2-2-----------4--1-----1--4-4--1-----1--
E-----4--2--4------4--2--4--------4-------------4-----
  RESUCITO                  RESUCITO

G-----------------------------------------------------
D-----------------------------------------------------
A--2-2-2-2-2-2-2-2-2----------------------------------
E-----------------------------------------------------
   VAMOS A CELEBRAD

G-----------------------------------------------------
D-----------------------------------------------------
A----------3-------5----7------4--7----6--9-----7-----
E----------------------------5-------7-------7--------
   NUESTRO SEÑOR RESUCITO

Fuente original: LaCuerda
Colaborador original: Juan Aguirre [[email protected]]
Aviso: Este fichero es trabajo propio de su transcriptor y representa su interpretación personal de la canción. El material contenido en esta página es para exclusivo uso privado, por lo que se prohibe su reproducción o retransmisión, así como su uso para fines comerciales.

Califica esta canción


Comentarios en Facebook