Enviado por:
anonimo

Enanitos Verdes, A Las Tres

Imprimir
solo:

e------------------------------------------------------------------------
B-1415-15--------------------------10h11h12------10h11h12----10---------
G----------11h12h13--13p10p11-12-14----------12-9----------12----11------
D------------------------------------------------------------------------
A------------------------------------------------------------------------
E------------------------------------------------------------------------

e-----17--15-14-12--14H15H1719--15-14-15-17-14-----------
B--15-------------------------------------------15--------
G--------------------------------------------------14~----
D---------------------------------------------------------
A---------------------------------------------------------
E---------------------------------------------------------

e-----------15-------------------------------------------
B--------15------12-15-----------------------------------
G--15/14---------------14---12/1112--------11-----------
D-------------------------------------14-12--------------
A--------------------------------------------------------
E--------------------------------------------------------

e--------------------------------------------------------
B--------------1012-------------------------------------
G-----11-12-14-------14-12-11/911-----------------------
D--14----------------------------------------------------
A--------------------------------------------------------
E--------------------------------------------------------

e----------------12-14-15-17-1719--15-14-----------------
B----------10-12--------------------------15--------------
G--9-11-12-----------------------------------14-----------
D---------------------------------------------------------
A---------------------------------------------------------
E---------------------------------------------------------

e--------14-15-1519--15-15-12-12--------------------
B-----15--------------------------15-15-12-12--------
G--14-----------------------------------------12-12--
D----------------------------------------------------
A----------------------------------------------------
E----------------------------------------------------

e--------------------------------------
B--------------------------------------
G--14-14-11-11-12-12-------------------
D--------------------9-7-11-9-11-------
A--------------------------------9-----
E--------------------------------------
Aviso: Este fichero es trabajo propio de su transcriptor y representa su interpretación personal de la canción. El material contenido en esta página es para exclusivo uso privado, por lo que se prohibe su reproducción o retransmisión, así como su uso para fines comerciales.

Califica esta canción


Comentarios en Facebook