Enviado por:
anonimo

Pedro Guerra, Todo Por Amor

Imprimir
[intro de cello para guitarra]

e------------------------|-----------------------|------------
B------------------------|------2---3------------|------------
G------------------------|--2-4-------2-----4-2--|------------
D------------------4--2--|--------------4--------|------------
A--4-5-7---4-2-0---------|-----------------------|------------
E------------------------|-----------------------|------------
  C#-D-E  C#-B-A   F#-E     A-B-C#  D-A-F#  B-A _________________[notas del CELLO]



[continua el cello con la guitarra atras]


 -----------------2--0--|--5-7-9---10-5---7--5-|------------
 --2-3-5---2------------|---------------7------|------------
 ------------4-2--------|----------------------|------------
 -----------------------|----------------------|------------
 -----------------------|----------------------|------------
 -----------------------|----------------------|------------
[CELLO toca las mismas notas pero en un octavo alto] _____________[notas del CELLO]



[guitarra entra en segunda parte del intro]

   Asus2             Asus2/F#          Asus2             Asus2/F#
 ----------0------|-----------------|----------0------|-------------------
 -------0------0--|----------0------|-------0------0--|----------0--------
 -----2------2----|-------2------2--|-----2------2----|-------2------2----
 -----------------|-----2------2----|-----------------|-----2------2------
 --0--------------|-----------------|--0--------------|-------------------
 -----------------|--2--------------|-----------------|--2----------------  [2x]

[verso, repite el riff de Asus2 y Asus2/F# continuamente hasta el pre-coro]


      A los cincuenta las palabras de pronto cambian de intencion
      Donde el pasado era de afecto, hoy es un nudo de dolor

      A los cincuenta Carmen debe redescubrir la luz del sol
      Con la familia a sus espaldas, y uno saber a donde voy


[pre-coro]

  Gm7               C/G                Am7               Dsus/F#
 ----------3------|----------3------|----------0------|-----------0-------
 -------3------3--|-------1------1--|-------1------1--|--------3------3---
 -----3------3----|-----0------0----|-----0------0----|------2------2-----
 -----------------|-----------------|-----------------|-------------------
 -----------------|--3--------------|--0--------------|-------------------
 --3--------------|-----------------|-----------------|---2---------------

  Bm7                E                 A9                E
 ----------2------|-----------------|-------0---------|-------------------
 -------3------3--|-------0---------|----------2------|-------0-----------
 -----2------2----|----------1------|-----2------2----|----------1--------
 -----------------|-----2------2----|--------------2--|-----2------2------
 --2--------------|--------------2--|--0--------------|--------------2----
 -----------------|--0--------------|-----------------|--0----------------


      Y Carmen que creia, que siempre duraria
      Dejo toda su alma y cuerpo en ese amor



[se toca este riff]

   Asus2             Asus2/F#          Asus2             Asus2/F#
 ----------0------|----------0------|----------0------|----------0--------
 -------0------0--|-------0------0--|-------0------0--|-------0------0----
 -----2------2----|-----2------2----|-----2------2----|-----2------2------
 -----------------|-----------------|-----------------|-------------------
 --0--------------|-----------------|--0--------------|-------------------
 -----------------|--2--------------|-----------------|--2----------------



[segundo verso]

   Asus2             Asus2/F#          Asus2             Asus2/F#
 ----------0------|-----------------|----------0------|-------------------
 -------0------0--|----------0------|-------0------0--|----------0--------
 -----2------2----|-------2------2--|-----2------2----|-------2------2----
 -----------------|-----2------2----|-----------------|-----2------2------
 --0--------------|-----------------|--0--------------|------------------- 
 -----------------|--2--------------|-----------------|--2---------------- [2x con el verso]

      A los cincuenta el hombre busca mirar la flor de otro balcon
      Otra familia que lo aguarde y en otros brazos el calor


[pre-coro]

  Gm7               C/G                Am7               Dsus/F#
 ----------3------|----------3------|----------0------|-----------0-------
 -------3------3--|-------1------1--|-------1------1--|--------3------3---
 -----3------3----|-----0------0----|-----0------0----|------2------2-----
 -----------------|-----------------|-----------------|-------------------
 -----------------|--3--------------|--0--------------|-------------------
 --3--------------|-----------------|-----------------|---2---------------

  Bm7                E                 A9                E
 ----------2------|-----------------|-------0---------|-------------------
 -------3------3--|-------0---------|----------2------|-------0-----------
 -----2------2----|----------1------|-----2------2----|----------1--------
 -----------------|-----2------2----|--------------2--|-----2------2------
 --2--------------|--------------2--|--0--------------|--------------2----
 -----------------|--0--------------|-----------------|--0----------------


      Y Carmen que pensaba quel beso no se acaba
      Vertio toda su vida en la herida de ese amor


[coro]

[primera guitarra rasguea los acordes]
[segunda guitarra toca el arpeggio, es opcional]

gtr.1
   A          Bm7       A#maj7       E
 --0-----------0-----------0---------0-------------
 --2-----------3-----------3---------0-------------
 --2-----------2-----------2---------4-------------
 --2-----------4-----------3---------2-------------
 --0-----------0-----------0---------2-------------
 --------------------------------------------------

gtr.2 arpeggio

 --------------------------------------------------
 --------2-----------3-----------3---------0-------
 ------2-----------2-----------2---------1---------
 ----2-----------4-----------3---------2-----------
 --0-----------0-----------0---------2-------------
 --------------------------------------------------

      Y ahora Carmen se muere en el sin desgarrarse
      Y ahora Carmen revive y trata de encontrarse


   F#m        C#m7       Dmaj7
 --------2----------4----------5--5-----------
 ------2----------5----------7----7-----------
 -----2----------4----------6-----6-----------
 --4----------6----------7--------7-----------
 ---------------------------------5-----------
 ---------------------------------------------

      Todo por amor, todo por amor



[se repite este riff]

   Asus2             Asus2/F#          Asus2             Asus2/F#
 ----------0------|----------0------|----------0------|----------0--------
 -------0------0--|-------0------0--|-------0------0--|-------0------0----
 -----2------2----|-----2------2----|-----2------2----|-----2------2------
 -----------------|-----------------|-----------------|-------------------
 --0--------------|-----------------|--0--------------|-------------------
 -----------------|--2--------------|-----------------|--2---------------- [2x]



[tercer verso]

   Asus2             Asus2/F#          Asus2             Asus2/F#
 ----------0------|-----------------|----------0------|-------------------
 -------0------0--|----------0------|-------0------0--|----------0--------
 -----2------2----|-------2------2--|-----2------2----|-------2------2----
 -----------------|-----2------2----|-----------------|-----2------2------
 --0--------------|-----------------|--0--------------|------------------- 
 -----------------|--2--------------|-----------------|--2---------------- [2x con el verso]


      Ahora el amor es ella misma mirando el rostro del amor
      Ahora el amor es de los hijos, que son el arbol del amor      


[pre-coro]

  Gm7               C/G                Am7               Dsus/F#
 ----------3------|----------3------|----------0------|-----------0-------
 -------3------3--|-------1------1--|-------1------1--|--------3------3---
 -----3------3----|-----0------0----|-----0------0----|------2------2-----
 -----------------|-----------------|-----------------|-------------------
 -----------------|--3--------------|--0--------------|-------------------
 --3--------------|-----------------|-----------------|---2---------------

  Bm7                E                 A9                E
 ----------2------|-----------------|-------0---------|-------------------
 -------3------3--|-------0---------|----------2------|-------0-----------
 -----2------2----|----------1------|-----2------2----|----------1--------
 -----------------|-----2------2----|--------------2--|-----2------2------
 --2--------------|--------------2--|--0--------------|--------------2----
 -----------------|--0--------------|-----------------|--0----------------


      La vida que se estira, que gira que no gira
      La vida y la esperanza que nace del amor



[coro]

gtr.1
   A          Bm7       A#maj7       E
 --0-----------0-----------0---------0-------------
 --2-----------3-----------3---------0-------------
 --2-----------2-----------2---------4-------------
 --2-----------4-----------3---------2-------------
 --0-----------0-----------0---------2-------------
 --------------------------------------------------

gtr.2 arpeggio

 --------------------------------------------------
 --------2-----------3-----------3---------0-------
 ------2-----------2-----------2---------1---------
 ----2-----------4-----------3---------2-----------
 --0-----------0-----------0---------2-------------
 --------------------------------------------------

      Y ahora Carmen se muere en el sin desgarrarse
      Y ahora Carmen revive y trata de encontrarse


   F#m        C#m7       Dmaj7
 --------2----------4----------5--5-----------
 ------2----------5----------7----7-----------
 -----2----------4----------6-----6-----------
 --4----------6----------7--------7-----------
 ---------------------------------5-----------
 ---------------------------------------------

      Todo por amor, todo por amor


[final]

[continua el cello con la guitarra atras]

 -----------------2--0--|--5-7-9---10-5---7--5-|------------
 --2-3-5---2------------|---------------7------|------------
 ------------4-2--------|----------------------|------------
 -----------------------|----------------------|------------
 -----------------------|----------------------|------------
 -----------------------|----------------------|------------


[guitarra junto al cello]

   Asus2             Asus2/F#          Asus2             Asus2/F#
 ----------0------|-----------------|----------0------|-------------------
 -------0------0--|----------0------|-------0------0--|----------0--------
 -----2------2----|-------2------2--|-----2------2----|-------2------2----
 -----------------|-----2------2----|-----------------|-----2------2------
 --0--------------|-----------------|--0--------------|-------------------
 -----------------|--2--------------|-----------------|--2---------------- [se repite]
Aviso: Este fichero es trabajo propio de su transcriptor y representa su interpretación personal de la canción. El material contenido en esta página es para exclusivo uso privado, por lo que se prohibe su reproducción o retransmisión, así como su uso para fines comerciales.

Califica esta canción


Comentarios en Facebook