Los Manseros Santiagueños, Nombrándote

Imprimir
1--8------8-6-----6-4----4-----8-8-8-8--9-8-6-6---------------------------
2----9-------8-------6-----5--------------------9-8--8-8-9-11-9-8-9-9-9-9-
3------10------8-------6-----5--------------------------------------------
4-------------------------------------------------------------------------
5-------------------------------------------------------------------------
6-------------------------------------------------------------------------


1--8-8-8-8---9-8-6-6------------------------------8-------8-------8--------
2----------------------9-8---8-8-9--11-9-8------9-------9-------9----------
3--------------------------------------------10------10------10------------
4--------------------------------------------------------------------------
5--------------------------------------------------------------------------
6--------------------------------------------------------------------------



Esta canción esta dedicada para mi hija Alison
Espero que esta canción sea del agrado de todos
los seguidores de los Manseros Santiagueños.
Aviso: Este fichero es trabajo propio de su transcriptor y representa su interpretación personal de la canción. El material contenido en esta página es para exclusivo uso privado, por lo que se prohibe su reproducción o retransmisión, así como su uso para fines comerciales.

Califica esta canción


Comentarios en Facebook