Enviado por:
anonimo

Pedro Guerra, Dibujos Animados

Imprimir
"Dibujos animados", 
 album "golosinas" 1995 BMG Ariola
Ignacio Roger de oña
Madrid, Espana
[email protected]

Aquí teneis la tabulacion de golosinas he intentado que sea lo mas fiel 
a lo que se oye en el disco aunque he simplificado algunas cosas,
para cualquier correccion, queja, peticion o incluso felicitacion,
 estoy en [email protected]   espero que lo paseis bien.....
Intro:
RE           LA7    SIm7                    LA
-----------2---0-----------------------------6--6--------6------------
---------3-----------2----3-----------3------------6----------------6-
-------2----------------------2---2-------------------7------7---7----
-----0----------------------------------------------------------------
---------------0----------2-------------------------------------------
------------------------------------------------6---------------------

RE           LA7    SIm7                    LA
-----------2---0-----------------------------6--6--------6------------
---------3-----------2----3-----------3------------6----------------6-
-------2----------------------2---2-------------------7------7---7----
-----0----------------------------------------------------------------
---------------0----------2-------------------------------------------
------------------------------------------------6---------------------

La intro se repite al principio de cada estrofa para cantar las dos primeras lineas, algo asi:
Yo podria    ser Bugs Bunny por mis dientes
RE           LA7    SIm7                    LA
-----------2---0-----------------------------6--6--------6------------
---------3-----------2----3-----------3------------6----------------6-
-------2----------------------2---2-------------------7------7---7----
-----0----------------------------------------------------------------
---------------0----------2-------------------------------------------
------------------------------------------------6---------------------
Tu eres algo como Dumbo en femenino
SOL           1             LA        SOL/SI  LA/DO#                  
----------------------------------------0-----------------------------
--3---3-------3----3-------2------2---3-------5-----------------------
----4---4-------4-----4--------2--------------------------------------
-.--------------------------------------------------------------------
---------------------------0----------2-------4-----------------------
--3-----------4-------------------------------------------------------
-

Asi se tocan el resto de estrofas con pequeñas variaciones, lo mas facil es poner el acorde completo de modo que se puedan hacer pequeñas variaciones

Estribillo:
Mi luz             mi corazon          mi pajarita   mi crayon
    RE                  Fa#m7/Do#          SIm7              LA
------------------2-------------------2--2------------------------0---
--------3-------------------------5-5-----5-----------------------2---
-------------2---------------------2-------2----------------------2---
-----0-------------------------2--------------------------------2-----
------------------------------------------------2-------2---0---------
----------------------------------------------------------------------

Por verte fui dejando siluetas en las puertas
SOL              RE/FA#      MIm7     LA7
-----------3---------2--------------0-------0-------------------------
----2---------------3-3--------3----------2--2------------------------
-------4-----------2---2-----------0-----0-----0----------------------
.---------------------------------------------------------------------
----------------------------2----------0------------------------------
-3---------------2----------------------------------------------------
Con los mismos acordes y arpegios se toca en resto del estribillo
mi luz, mi corazon mi tinta china por amor
le pido al dibujante que me lleve en un cometa



Acordes:

Re:000232
La7:002020
Sim7:224232
Sol/si:020030
La/Do#:040050
Mim7:022030
1:402430
Fa#m7/do#:242252


Letra:
Yo podria ser Bugs Bunny por mis dientes
Tu eres algo como Dumbo en femenino
Porsonajes de dibujo como gentes
 animados por la vara de algun brujo

Shostakovich nos dejo bandas sonoras
Un tratado de los ritmos y las claves
Me persigues por el canto de una viola
Yo me escondo en el tam tam de los timbales

Mi luz mi corazon mi tinta china mi crayon 
Por verte fui dejando siluetas en las puertas
Mi luz mi corazon mi tinta china por amor
Le pido al dibujante que me lleve en un cometa

Hoy te he visto discutiendo con Bart Simpson
Si es un hombre o un animal el pato lucas
Realmente yo no se cuando te he visto
 si eras solo una ilusion del que dibuja

mi luz...

Me aplasto el crujir de una locomotora
Me quede como una linea en el espacio
Me barriste sin querer con una escoba
Me salvaste con un beso y un abrazo

MI luz....



Ignacio Roger de Oña "[email protected]"
Aviso: Este fichero es trabajo propio de su transcriptor y representa su interpretación personal de la canción. El material contenido en esta página es para exclusivo uso privado, por lo que se prohibe su reproducción o retransmisión, así como su uso para fines comerciales.

Califica esta canción


Comentarios en Facebook