Enviado por:
anonimo

Música Católica, Entre Tus Manos

Imprimir
hola soy jonatan:
hola esta es mi primera transcripcion espero les guste
este re quinto es en dos partes

1º
e-----1-0-0-|-0-1-2-1------|-1-5-1-0-0-1-0---0-1-
b-3-3-------|---------3----|---------------3-----
g-----------|-----------3-2|---------------------
d-----------|--------------|---------------------
a-----------|--------------|---------------------
e-----------|--------------|---------------------


2º

e-1-2-5-7-|-7-5-3-5-|-----1-0-0-|-1-0---0---
b---------|---------|-3-3-------|-----3---3-
g---------|---------|-----------|------------
d---------|---------|-----------|-----------
a---------|---------|-----------|-----------
e---------|---------|-----------|----------

*luego luego empieza el canto



D          A              D
Entre tus manos, está mi vida Señor,
           A                 D   D7
entre tus manos pongo mi existir...
           G           D
Hay que morir, para vivir,
           A               D
entre tus manos confío mi ser
        G                D
Si el grano de trigo no muere
        G              D
si no muere solo quedará
         A             D
pero si muere, en abundancia dará
          A                 D  D7
un fruto eterno que no morirá.



bueno espero les guste mando un salido a todos los integrantes
del coro nueva generacion de la parroquia de santa maria
 coronango puebla
en este pais tan chido mexico, en especial a edith, marcelo,
 lucy, ricardo, poncho y mary
y haber cuando les paso mas cantos cualquier aclaracion en
[email protected]
cuidense bye
Aviso: Este fichero es trabajo propio de su transcriptor y representa su interpretación personal de la canción. El material contenido en esta página es para exclusivo uso privado, por lo que se prohibe su reproducción o retransmisión, así como su uso para fines comerciales.

Califica esta canción


Comentarios en Facebook