Enviado por:
anonimo

No Te Va Gustar, Revolución

Imprimir
Cuando arranca el bajo hace lo siguiente en casi todos las
estrofas

G ----------------------------------------------------------
D ----------------------------------------------------------
A -------3-5-------3-5---------5-5---------5----------------
E -3-3-6-----3-3-6-----6-6-6-8-----8-6-5-5------------------

en el estribillo cuando dice:
"ya no nos creemos..."
hace lo siguiente

G ----------------------------------------------------------
D -------3-5-------3-5--------------------------------------
A -3-3-6-----3-3-6------todo esta bien..--..re-volu-cion..--
E ----------------------6----3-1---3---------6---5----3-----

hace el mismo dibujo cuando sube de tono, que seria asi:

G ----------------------------------------------------------
D ----------------------------------------------------------
A -------5-7-------5-7----------7-7----------5--------------
E -5-5-8-----5-5-8-----8-8-8-10-----10-8-7-7----------------

"ya no nos creemos..."

G ----------------------------------------------------------
D -------5-7-------5-7--------------------------------------
A -5-5-8-----5-5-8------todo esta bien..--..re-volu-cion..--
E ----------------------8----5-3---5---------8---7----5-----


::::...consejo: probar encima del tema:::...
Aviso: Este fichero es trabajo propio de su transcriptor y representa su interpretación personal de la canción. El material contenido en esta página es para exclusivo uso privado, por lo que se prohibe su reproducción o retransmisión, así como su uso para fines comerciales.

Califica esta canción


Comentarios en Facebook