Enviado por:
anonimo

No Te Va Gustar, Mucho Más Feliz

Imprimir
  Intro
                 D             C                       G
e|-----------------------------------------------------------|
B|-----------------------------------------------------------|
G|-4-4-5-5/7--9--9/11~11/13-11-11/-9--9--9-9--9/11--9--9-7-7-|
D|-5-5-7-7/9-10-10/12-12/14-12-12/10-10-1010-10/12-10-10-9-9-|
A|-----------------------------------------------------------|
E|-----------------------------------------------------------|
                        D            C                G
 |---------------------------------------------------------|
 |---------------------------------------------------------|
 |-11-11-13/1515-15-13-11~-11/13-11-11/-9--9--9-9-7-7-7/5~-|
 |-14-12-14/1616-16-14-12~-12/14-12-12/10-10-1010-9-9-9/7~-|
 |---------------------------------------------------------|
 |---------------------------------------------------------|

 |-------------------|
 |-----12---10-------|
 |---------------12~-|
 |-7/12---12---12----|
 |-------------------|
 |-------------------|

Espero que les guste.
Cualquier duda [email protected]
Aviso: Este fichero es trabajo propio de su transcriptor y representa su interpretación personal de la canción. El material contenido en esta página es para exclusivo uso privado, por lo que se prohibe su reproducción o retransmisión, así como su uso para fines comerciales.

Califica esta canción


Comentarios en Facebook