Enviado por:
anonimo

No Te Va Gustar, Más Mejor

Imprimir
Weno, dejo mi versión del tema, es la q tocan en vivo
mas especificamente en el Velodromo el día q grabaron su DVD
o como hicieron en el Pepsi music 2006
eso sí, esa parte dl solo fue sacado x [email protected]



[INTRO]

Entran 1ero la bata y el bajo...y dsps emiliano con esto:
(prestenle muchia atención a esta parte xq es muy rapida)

   Bm
e|--------------------------------------
B|--3--------3---------3--------3-------
G|--4--------4----24---4--------4----24-
D|----0-234----234-------0-234----234---
A|-2--------2---------2--------2--------
E|--------------------------------------

e|------------------------------------------|
B|--3--------3---------3--------------------|
G|--4--------4----24---4--------2-----------|
D|----0-234----234-------0-234---4-3-2-0----|
A|-2--------2---------2-----------------3-2-|
E|------------------------------------------|

(y ahí engancha con la verdadera Intro dl tema)

  Bm         Bm   A   Bm        Bm    A
e|---------------------------------------|
B|-3---------3--------3---------3--------|
G|-4----2-4--4----22--4----2-4--4-----2x-|
D|-4-2h4-----4-2h4----4-2h4-----4-2h4-2x-|
A|-2---------2--------2---------2--------|
E|---------------------------------------|

(La X es d hacerla sonar apagado)

No tenías una idea mejor
no escuchabas más allá de su voz
no te dejaban salir, no te dejaban saltar
no te dejaban hacer lo que querias hacer
y eso a vos, a los dos

Nos chupa un huevo lo que diga esa gente
nos chupa un huevo lo que diga el Señor
que me importa la vida eterna,
que me importa la salvación
y que me importan a mi las monjas y la palabra de Dios
si ese Dios se olvido

No se acordó que tenia hijos del otro lado del Ecuador
Si se quemaban en el infierno,
si los mataban de inquisición
mucho mejor
más mejor.

A5                     G5
   A quien le importa
F#5                  B5
   si te quedás o si no.
A5               G5
   Quedate piola
               F#5                      B5
No hinches las bolas que les hacés un favor

[SOLO]

1/-----------/----------------------------/---------/-
2/-----------/----------------------------/---------/-
3/-9h11-9h11-/----------------------------/---------/-
4/-----------/--12-12-11-11-12-11-12p11-9-/-----7h9-/-  SIGUE AbAJO
5/-----------/----------------------------/-7h9-----/-
6/-----------/----------------------------/---------/-

1/--------------------------------/-
2/--9*-10*-11*-12*-13*-11*-10*-9*-/-
3/--------------------------------/-  FALTA UNA PARTE DEL PUNTEO
4/--------------------------------/-  PERO HASTA AHI SUENA BIEN
5/--------------------------------/-
6/--------------------------------/-

*= estirar la cuerda

Nos chupa un huevo lo que diga esa gente
nos chupa un huevo lo que diga el Señor
que me importa la vida eterna,
que me importa la salvación
y que me importan a mi las monjas y la palabra de Dios
si ese Dios se olvido

No se acordó que tenia hijos del otro lado del Ecuador
Si se quemaban en el infierno,
si los mataban de inquisición
mucho mejor
más mejor (x 7)



Weno, para mi la intro dl tema es así
lo demas es todo iwal a la anterior jeje
cualkier cosa me mandan mail a [email protected]
Aguante el Rock n' roll y nada mas,
es algo que los chetos no pueden entender!
Aviso: Este fichero es trabajo propio de su transcriptor y representa su interpretación personal de la canción. El material contenido en esta página es para exclusivo uso privado, por lo que se prohibe su reproducción o retransmisión, así como su uso para fines comerciales.

Califica esta canción


Comentarios en Facebook