Enviado por:
anonimo

Danilo Montero, Bendito Jesús

Imprimir
INTRO "BENDITO JESUS"

e-----------------------------------------------------------------------
B-14s16-16-16-16------16-16s14-14-14-14-14------------------------------
G---------------16-------------------------16-15----15s16-15s16-16-16-16
D-----------------16-----------------------------16---------------------

e---------------------------------
B-14s16-----14s17-17-17-17-16s12--
G------16313----------------------
D---------------------------------

SOLO

e-----------------------------------------------------------------------
B----16-14----------16-14-16-14---16-14----------16-14-16-14---16v------
G-13v------16-15-13------------13v------16-15-13------------13v----13v--


Espero que sea de bendicion para tu vida
v: vibrato
s: slide

BENDICIONES DESDE COSTA RICA, PURA VIDA.... MARCO TORRES.
ME PUEDEN BUSCAR EN YOUTUBE CON EL NOMBRE DE MATTORE85 AHI
ENCONTRARAN
ESTA TAB EN VIDEO Y MUCHOS MAS VIDEOS...BENDICIONES
Aviso: Este fichero es trabajo propio de su transcriptor y representa su interpretación personal de la canción. El material contenido en esta página es para exclusivo uso privado, por lo que se prohibe su reproducción o retransmisión, así como su uso para fines comerciales.

Califica esta canción


Comentarios en Facebook