Enviado por:
anonimo

Canciones Populares, Se Busca

Imprimir
Wuau!!! Es increíble q nadie haya podido
sacar esta canción. Bueno pero yo se las dejo aquí
están los acordes y las notas para los chiflidos.
Todo fácil escuchen la canción. Sale.
For you!!!
A por cierto ya corregí los acordes ahora si ta bien ;)
Cualquier duda ahí me encuentran en el messenger

Intro: Am Em x 5
   Am        C   Am      G   Em            F         G         D
e|-5-7-8--0-3~--5-7-8--0-----0-3-0-3-0-3-0-12-10-8~-5/7-7-5-3-5--|
B|-----------------------3~--------------------------------------|
G|---------------------------------------------------------------|
D|---------------------------------------------------------------|
A|---------------------------------------------------------------|
E|---------------------------------------------------------------|

   Am        C   Am      G   Em            F         G         D
e|-5-7-8--0-3~--5-7-8--0-----0-3-0-3-0-3-0-12-10-8~-5/7-7-5-3-5--|
B|-----------------------3~--------------------------------------|
G|---------------------------------------------------------------|
D|---------------------------------------------------------------|
A|---------------------------------------------------------------|
E|---------------------------------------------------------------|

    C     Am     C      Am     C

    Em                  Am
e|-8----8-----8-10-12-10-8----8----8-10-12----------|
B|----8----8---------------10---10------------------|
G|--------------------------------------------------|
D|--------------------------------------------------|
A|--------------------------------------------------|
E|--------------------------------------------------|

    F                   G
e|-8----8-----8-10-12-10-8----8----8-10-12-------|
B|----8----8---------------10---10---------------|
G|-----------------------------------------------|
D|-----------------------------------------------|
A|-----------------------------------------------|
E|-----------------------------------------------|
   C                             Em
e|-12----12----12-13-15-13-12-10-8-----8----8-10-12-10-8-10-12-|
B|----12----12----------------------10---10--------------------|
G|-------------------------------------------------------------|
D|-------------------------------------------------------------|
A|-------------------------------------------------------------|
E|-------------------------------------------------------------|
    Am                        F               G ………. D
e|-12----12----12-13-15-13-12-10-8-7--5--3--5---|
B|----12----12----------------------------------|
G|----------------------------------------------|
D|----------------------------------------------|
A|----------------------------------------------|
E|----------------------------------------------|


Se repite toda la canción otra vez!!!
Solo lleva una pequeña variación en la parte aguda

Para el final!:

   Am        C   Am      G   Em            F         G         D
e|-5-7-8--0-3~--5-7-8--0-----0-3-0-3-0-3-0-12-10-8~-5/7-7-5-3-5--|
B|-----------------------3~--------------------------------------|
G|---------------------------------------------------------------|
D|---------------------------------------------------------------|
A|---------------------------------------------------------------|
E|---------------------------------------------------------------|

Aquí el intro hasta q acabe la canción.
e|-8-7-5-3-5---|
B|-------------|
G|-------------| x5!!!
D|-------------|
A|-------------|
E|-------------|
Aviso: Este fichero es trabajo propio de su transcriptor y representa su interpretación personal de la canción. El material contenido en esta página es para exclusivo uso privado, por lo que se prohibe su reproducción o retransmisión, así como su uso para fines comerciales.

Califica esta canción


Comentarios en Facebook