Enviado por:
anonimo

Maná, Róbame El Alma

b= bend         h= hammer
r= release      p= pull
/= slide up     x= palm mute
= slide down   
~= vibrato

INTRO:

E|--------------------------------------------------------------------------|
B|----------10--------------------9--------------------10-------------------|
G|----9---9----9---9-9------9---9---9---9-9------9---9----9---9-9-----------|
D|--7---7--------7--------7---7-------7------------7--------7---------------|
A|---------------------------------------------9----------------------------|
E|--------------------------------------------------------------------------|

E|---------------------------|
B|------10-------------------|
G|----9----9-9-------9-------|
D|--0--------------9---9--9--|
A|---------------7-----------|
E|---------------------------|

Acordes para el verso:
      E  A   D  G  B  E             Las notas en parentesis son opcionales
A  =  5  7  [7] X  X  X             
C# =  9 11 [11] X  X  X             Las cuerdas con X no se tocan 
D  = 10 12 [12] X  X  X             
F# =  2  4  [4] X  X  X
G# =  4  6  [6] X  X  X

El ritmo del verso es muy facil, lo sacas escuchando una vez la canción.

A         C#            A 
Robame el alma y bebela
           C#          A
Embriagate hasta caer,
        C#    D      A      C#     F#    G#         
Y amame hasta enloqueceeee-ee-ee-ee-err

A        C#                 A              
Moja mis sueños con tu luz
         C#                 A
Moja mis cabellos y mi piel                   estos dos ultimos acordes  
            C#        D    A       C#    F#   C# D        se tocan como 
Hay algo en ti que me pone bieeee-ee-ee-ee-en                en el coro

Acordes del coro:


        E   A   D  G  B  E
E  =   [7]  7   9  9  X  X
F# =   [9]  9  11 11  X  X
D  =   [5]  5   7  7  X  X
C# =   [4]  4   6  6  X  X 

El ritmo del coro es un poco mas complicado, solo escucha muy bien el cd.

Coro:

E         F#  E                           
Robame el alma
D       C#          D    E
Elevame con tu espiritu
          F#  E
Robame el alma
D        C#          D      E
Inyectame fuerza con tu luz
          F#     E    D  C#           
Robame el almaaaaa-aa-aaaa      

C# D 

A         C#               A
Robame el alma y siembrala
         C#                 A
Entre tu pecho y el corazon
         C#        D      A    C#     F#  G#      
Entre las nubes de tu pasiooo-oo-oo-oo-on

A         C#             A
Desnuda mi alma y curala
          C#               A
Llena mis ojos con tu luz                    
        C#             D     A   C#    F#  C# D           
Llena mi amor con tu espirituuu-uu-uu-uu-u ^  ^se tocan como en el coro 

CORO

E         F#  E
Robame el alma
D       C#          D    E
Elevame con tu espiritu
          F#  E
Robame el alma
D        C#          D      E
Inyectame fuerza con tu luz
          F#     E    D  C#     G#/A                
Robame el almaaaaa-aa-aaaa


Los acordes que se tocan durante el solo se tocan como en el verso: 

Solo escucha esa parte en el cd y sabras cuando se toca cada acorde

G# F# G# G#/A G# F# G#
           ^este es un slide entre G# y A 
SOLO:

E|--------------------------------------------------------------------------|
B|-10-10-10-10-10-10-9-9-9-9-9-9-7-7-7-7-10-10-10-10-10-10-10-9-9-9-9-9-9-10|
G|--------------------------------------------------------------------------|
D|--------------------------------------------------------------------------|
A|--------------------------------------------------------------------------|
E|--------------------------------------------------------------------------|

E|--------------------------------------------------------------------------|
B|-12-12-12-12-12-12-12/14-14-14-14-14-14-12-12-12-12-17-17-17-17-17-17-15--|
G|--------------------------------------------------------------------------|
D|--------------------------------------------------------------------------|
A|--------------------------------------------------------------------------|
E|--------------------------------------------------------------------------|

E|----------------------------19-19-19-19-19-19-17-17-17-17-17-17-16-16-16--|
B|-15-15-15-15-15-14-14-14-14-17-17-17-17-17-17-----------------------------|
G|--------------------------------------------------------------------------|
D|--------------------------------------------------------------------------|
A|--------------------------------------------------------------------------|
E|--------------------------------------------------------------------------|

E|-16-19-19-19-19-19-19-17-17-17-17-17-17-16-14-14-14-14-14-14-15-15-15-15-|
B|--------------------------------------------------------------------------|
G|--------------------------------------------------------------------------|
D|--------------------------------------------------------------------------|
A|--------------------------------------------------------------------------|
E|--------------------------------------------------------------------------|

E|-15-15-14-14-14-14--14-14-14-14-14-14-15-15-15-15-15-15-15---------------|
B|--------------------------------------------------------------------------|
G|--------------------------------------------------------------------------|
D|--------------------------------------------------------------------------|
A|--------------------------------------------------------------------------|
E|--------------------------------------------------------------------------|

Despues del solo toca el siguiente RIFF dos veces:

E|--------------------------------------------------------------------------|
B|--------------7-7-7----------------------------------7-7-7----------------|
G|------------5------------------5-7-7-7-------------5----------------------|
D|----7-7-5-5------------7-7-5-5-------------7-7-5-5------------------------|
A|--5------------------5-------------------5--------------------------------|
E|--------------------------------------------------------------------------|

E|------------------------------|
B|------------------------------|
G|------------7p5-------5-------|
D|----7-7-5-5-----7p5-7---------|
A|--5---------------------------|
E|------------------------------|


CORO

E         F#  E
Robame el alma
D       C#          D    E
Elevame con tu espiritu
          F#  E
Robame el alma
D        C#          D      E
Inyectame fuerza con tu luz
          F#     E    D  C#           
Robame el almaaaaa-aa-aaaa


C#           D    C#      
Desnudame el alma
            D    E  F#
Y curame el alma
       E           D  C#   
Robame toda el alma

C# D

C#           D    C#      
Desnudame el alma
            D    E  F#
Y curame el alma
       E           D  C#   
Robame toda el alma

C# D

FINAL:

Toca este RIFF cuatro veces:

E|----------------------|
B|----------10----------|
G|----9---9----9---9-9--|
D|--7---7--------7------|
A|----------------------|
E|----------------------|
Aviso: Este fichero es trabajo propio de su transcriptor y representa su interpretación personal de la canción. El material contenido en esta página es para exclusivo uso privado, por lo que se prohibe su reproducción o retransmisión, así como su uso para fines comerciales.

Califica esta canción


Comentarios en Facebook