Enviado por:
anonimo

Pedro Guerra, Quiere

Comienzo
--------0---------------0------------0---------------0---
------1---1---1-------1------------1---1---1-------1-----
----2-------0---0---2------------2-------0---0---2-------
----------2----------------------------2-----------------
--0---------------0------------0---------------0---------
---------------------------------------------------------

Acordes

 Am    Am7   Am6   B7   E7+/9  E6  C#m7/5b 
--0-----0-----2-----2-----4-----0----------
--1-----1-----1-----0-----4-----2-----5----
--2-----0-----2-----2-----4-----1-----4----
--2-----2-----2-----1-----4-----2-----5----
--0-----0-----0-----2-----------2-----4----
--------------------------0-----0----------

 F#7   Bm   Bm/A  E7/G#   E7    A7    E7 
--2-----2-----2-----4------0-----0-----4----
--2-----3-----3-----3------0-----2-----4----
--3-----4-----4-----4------1-----0-----4----
--2-----4-----4------------0-----2-----2----
--4-----2-----0------------2-----0----------
--2-----------------0------0-----------0----


Am      Am7              Am6
Quiere que no midas cada paso
Am            Am7          Am6
Quiere que no des pasos de más
Am              Am7           Am6
Quiere que la quieras y le enseñes
   B7         E7+/9
Dónde queda la felicidad

Am      Am7                Am6
Quiere que la abraces y la calmes
Am            Am7          Am6
Quiere que la dejes descansar
Am      Am7             Am6
Quiere que sonrías y le cures 
    B7           E7+/9-E6 
las heridas de la soledad

C#m7/5b -F#7                Bm-Bm/A 
Quiere todo el tiempo para respirar 
E7/G#     E7
y que respires
A7          F#7     
tiempo para dar, cuidar,
    B7            E7-E6
cuidarte y que la cuides
Am     Am7   
tiempo para amar tu amor,
 Am6          B7      
amar su amor, llamar, armar
E7 
y amarte amor.

Am     Am7                  Am6
Quiere que le des espacio y tiempo
Am      Am7           Am6
Quiere que le cuentes tu dolor
Am            Am7         Am6
Quiere que la quieras y encender
            B7     E7+/9
como una hoguera toda su pasión.


Am              Am7         Am6
Quiere que la amarres a tus besos
Am        Am7         Am6
En el paladar de tu sabor
Am             Am7      Am6
Quiere que sonrías y sentirse 
     B7          E7    E6
protegida de tu corazón



quiere todo el tiempo...


Trascripción de Miguel Ángel Lugo.
Aviso: Este fichero es trabajo propio de su transcriptor y representa su interpretación personal de la canción. El material contenido en esta página es para exclusivo uso privado, por lo que se prohibe su reproducción o retransmisión, así como su uso para fines comerciales.

Califica esta canción


Comentarios en Facebook