Enviado por:
anonimo

No Te Va Gustar, Solo De Día

Imprimir
|----------------------------------|
|--------7-5--5-6-7-------7-5------|
|-----------7----------------------|
|-5-5-5-5----------5-5-5-5---7-8-0-|

Así es en el comienzo, pero mientras canta hace...

|--------------------|
|--------7-5--5-6-7--|
|-----------7--------|
|-5-5-5-5------------|

Antes de arrancar los gritos hace una bajada...

|------------------------------------|
|-------7-5-5-6-7-------7-5-7-6-5----|
|----------7---------------------7-6-|
|5-5-5-5---------5-5-5-5-------------|
y luego cuando arrancan hace...

|-------------------5-5-6-6-7-7--|
|--------5-5-6-6-7-7-------------|
|-5-5-8-8------------------------|
|--------------------------------|

y después toca sólo una cuerda en la nota correspondiente...
(cuando arranca la parte tipo folclore)
q' son:

A;G;C y D
y cuando hace Re el bajo hace...
|------------------|
|------------------|
|------------------|
|-5-6-7------------|
y luego...
|------------------|
|------------------|
|-------5-6-7------|
|-5-6-7------------|
Suerte!!!

Ezeqiel...
Aviso: Este fichero es trabajo propio de su transcriptor y representa su interpretación personal de la canción. El material contenido en esta página es para exclusivo uso privado, por lo que se prohibe su reproducción o retransmisión, así como su uso para fines comerciales.

Califica esta canción


Comentarios en Facebook