Los Manseros Santiagueños, De La Banda A Santiago

Imprimir
Am
Santiagueño soy señores
Dm
cantando la chacarera,
C
cruzando el Río Dulce
E                    Am
siempre alguien me espera.

Tomando un traguito i' vino,
golpeando dos cajas viejas,
vidaleros se preparan
cantando en Las Cejas.

Repicale fuerte al bombo
que un violín esta llorando,
Salamanca de Loreto
siempre ando añorando.

A la Banda voy llegando,
siempre me acuerdo del pago,
aunque lejos yo me encuentre 
le canto a Santiago.


II           

Nochecitas santiagueñas
nunca las puedo olvidar
hasta que aclaraba el día
sabíamos cantar.

Se viste de fiesta el pago
cuando suena una guitarra
¡Ahijunita! que lindo eran
esas lindas farras.

Ya me voy, ya me estoy yendo
cantando la chacarera
debajo de un tala viejo,
que después me muera.


INTRO: 

(1)|----5--8--7--5--4--5--7--5--4----0---0--------|
(2)|---5----------------------------0-------3--1--|
(3)|--5----9--7--5--4--5--7--5--4--1----1---4--2--|
(4)|----------------------------------------------|
(5)|----------------------------------------------|
(6)|----------------------------------------------|


(1)|-----0----------------------0--------------|
(2)|----1---3--1--0--1--3--1---0--3--1---------|
(3)|---2----4--2--1--2--4--2--1--4---2---------|
(4)|--2----------------------------------------|
(5)|-------------------------------------------|
(6)|-------------------------------------------|



* - VOZ CANTANTE: - *

(1)|---0-0-0---0---|--1-1-0-1-0-1--|--0-0---0---0---|-------------|
(2)|------4--3---1-|-------------3-|------4---3---3-|-1-0-0-1-3-1-|
(3)|-2-------------|-2-------------|-2--------------|-------------|
(4)|---------------|---------------|----------------|-------------|
(5)|---------------|---------------|----------------|-------------|
(6)|---------------|---------------|----------------|-------------|
Aviso: Este fichero es trabajo propio de su transcriptor y representa su interpretación personal de la canción. El material contenido en esta página es para exclusivo uso privado, por lo que se prohibe su reproducción o retransmisión, así como su uso para fines comerciales.

Califica esta canción


Comentarios en Facebook