Enviado por:
anonimo

Abel Pintos, Reflejo Real

Imprimir
Hola gente!! les dejo algunas tablaturas de Abel porque no hay muchas!
esto es solo el punteo que hace Ariel Pintos en el medio...
los acordes busquenlo en el otro tema que estan perfectos!!


1-/-----------/--------7-9-10-9-7----------7----9-----/
2-/9-9-9-9-9-9/-7-9-10-----------10-9-10-----9----9---/
3-/-----------/-------------------------------------9-/


1-/-10--9-----9-----/---------------/
2-/-10----9-7---9-7-/---4-5-7-5-4-5-/
3-/-10--------------/-7-------------/


1-/------5-5-------5-7-------5-7--5-3-2-/
2-/-------------------------------------/
3-/-4/5--5-5--4/5--5-7--4/5--5-7--5-4-2-/


1-/-12-11-9--12-11-9-/-14-12-11--14-12-11--14-12-11-14-12-11-14-12-11-/
2-/------------------/------------------------------------------------/
3-/------------------/------------------------------------------------/
Aviso: Este fichero es trabajo propio de su transcriptor y representa su interpretación personal de la canción. El material contenido en esta página es para exclusivo uso privado, por lo que se prohibe su reproducción o retransmisión, así como su uso para fines comerciales.

Califica esta canción


Comentarios en Facebook