Enviado por:
anonimo

Pedro Guerra, Mujer Que No Tendré

Imprimir
Que hay de nuevo viejos... Otra transcripción cortesía de: 

http://www.elrincondelcantautor.com

Creo que es bastante fiable la transcripción, pero
cualquier error, duda.. a [email protected]



|------------------------------- VERSOS ---------------------------|
   
|--3--------3-----------3----3------3-----------3---3-----3--------|
|---------0-----------1-----------0-----------3---------3---3------|
|-------0-----------0-----------0-----------0---------0-------0----|
|---------------0^2---------------------0^2------------------------|
|---------------------------------------------------3--------------|
|--3-------------------------3-------------------------------------|

|--3-----3-------------3--------------2^3^2-----2-----|
|----3-----3---------1---1---1------3-------3---------|
|------0-----0-----0-------0------2-----------2-------|
|-------------------------------0---------------------|
|----------------3------------------------------------|
|-----------------------------------------------------|

|-------------------------------- ESTRIBILLO ----------------------|

|----------------------------------------2-----3-----5-------------|
|--------3---------------3-------------3---3-----3-----3-----------|
|------0---0---0-------0---0---0-----2-------2-----2-----2---------|
|----0-------0-------0-------0-----0-------------------------------|
|------------------2-----------------------------------------------|
|--3---------------------------------------------------------------|

|----------------------------------------------0-----0-------------|
|--------3---------------3---------------3-------0-----0-----------|
|------0---0---0-------0---0---0-------0---0-------3-----3---------|
|----0-------0-------0-------0-------0-------0---------------------|
|------------------2---------------3-------------------------------|
|--3---------------------------------------------------------------|

|--------3--------------2^3^2------------|
|------1---1---1------3-------3---3------|
|----0-------0------2-----------2--------|
|-----------------0----------------------|
|--3-------------------------------------|
|----------------------------------------|



A.- El desierto del sahara 
esta mas cerca de mis labios 
que tus besos...
y el mercado en estambul.

A.- Las mezquitas de la India
están más cerca de mis dedos 
que tu cuerpo...
y la noche en Katmandú 

ESTRIBILLO:

Mujer que no tendre
que no adivinaras
mis buenas luces
mujer que no tendre
que nunca sufrira
mis malos ratos.

A.- Los danzones de Santiago
están más cerca de mi ritmo
que tus piernas...
las terrazas de Madrid. 

A.- Los almendros de Tejeda
están más cerca de mis labios
que tu escuela...
el lugar que nunca vi. 

ESTRIBILLO:

Mujer que no tendre
que no adivinaras
mis buenas luces
mujer que no tendre
que nunca sufrira
mis malos ratos.

ESTRIBILLO:

Mujer que no tendre
que no adivinaras
mis buenas luces
mujer que no tendre
que nunca sufrira
mis malos ratos.

Transcripción de JAVIK.
Aviso: Este fichero es trabajo propio de su transcriptor y representa su interpretación personal de la canción. El material contenido en esta página es para exclusivo uso privado, por lo que se prohibe su reproducción o retransmisión, así como su uso para fines comerciales.

Califica esta canción


Comentarios en Facebook