Enviado por:
anonimo

No Te Va Gustar, Tu Nombre

Imprimir
hola a todos   es la primera tabs de NTVG q subo espero q les guste
este temaso

Intro y Verso: 00:02
repite esto con algunas
modificaciones entre las notas q no son de importancia
       Em
G|--------------------------------
D|--------------------------------
A|-----------7-5-------------7-5--
E|-----0----x-----x5h7-0----x-----

     Bm7
  ---------------------------------|
  ------------7------------7-999---|
  ---------------------------------|
  -x5-7----x7----x57----x7---------|


"Yo no se porque razón...)" 01:09
    G       Bm      D     Am
G|----------------------------------
D|----------------------------------
A|----------22222223555555------235-
E|--33333335--------------355555----
    Em      Bm      D      Am
  ----------------------------------|
  ----------------------------------|
  --7777777522222223555555----------|
  ------------------------355555555-|

Intermedio: 01:31
   Em      C-Bm
G|--------------|
D|--------------|
A|------7-x3-2--| x4
E|-0------------|

Verso: 01:42
"Yo no se porque razón..."  02:27

"Si te hace mal...": 02:49
   B       F#      A       E
G|----------------------------------
D|----------------------------------
A|---------99999999-----------------
E|-77777777--------5555555500000000-
   B           F#      A       C
  ----------------------------------------|
  ----------------------------------------|
  -----12121212----9999-------------------|
  -7777--------2222----555555558888888888-|

Puente: 03:11
    G       Bm      D     Am
G|----------------------------------
D|----------------------------------
A|----------22222223555555------235-
E|--33333335--------------355555----
    G       Bm      D      Am
  -----------------------------------|
  -----------------------------------|
  ----------222222235555555----------|
  --33333335---------------355555555-|

"Si te hace mal...": 03:34
   B       F#      A       E
G|----------------------------------
D|----------------------------------
A|---------99999999-----------------
E|-77777777--------5555555500000000-
   B           F#      A       C
  ---------------------------------------------|
  ---------------------------------------------|
  -----12121212----9999------------/1515151515-|
  -7777--------2222----555555558888------------|

Intermedio: 03:59

cualquier duda  [email protected]
Aviso: Este fichero es trabajo propio de su transcriptor y representa su interpretación personal de la canción. El material contenido en esta página es para exclusivo uso privado, por lo que se prohibe su reproducción o retransmisión, así como su uso para fines comerciales.

Califica esta canción


Comentarios en Facebook