Enviado por:
anonimo

Canciones Populares, De Colores

Imprimir
-0-----------0-0-0-0-----0-0-0-0-----0---------------------
---3-3-2-2-3---------3-2---------3-2---3-------------------
-----------------------------------------------------------
-----------------------------------------------------------
-----------------------------------------------------------
-----------------------------------------------------------

-----------0-2-2-2-2-0---2-2-2-2-0---2-0-------------------
-3-2-2-0-3-------------3-----------3-----------------------
-----------------------------------------------------------
-----------------------------------------------------------
-----------------------------------------------------------
-----------------------------------------------------------

-0-----------0-0-0-0-----0-0-0-0-2-3-2---------------------
---3-3-2-2-3---------3-2-----------------------------------
-----------------------------------------------------------
-----------------------------------------------------------
-----------------------------------------------------------
-----------------------------------------------------------

---0-2-2-2-2-4-2-2-0-0-0-2-0-0---0-2-0---------------------
-3-----------------------------3-------3-2-----------------
-----------------------------------------------------------
-----------------------------------------------------------
-----------------------------------------------------------
-----------------------------------------------------------

---0-2-2-2-2-4-2-2-0-0-0-2-0-0---0-2-0---------------------
-3-----------------------------3-------3-2-----------------
-----------------------------------------------------------
-----------------------------------------------------------
-----------------------------------------------------------
-----------------------------------------------------------
Aviso: Este fichero es trabajo propio de su transcriptor y representa su interpretación personal de la canción. El material contenido en esta página es para exclusivo uso privado, por lo que se prohibe su reproducción o retransmisión, así como su uso para fines comerciales.

Califica esta canción


Comentarios en Facebook